Ads

Flamesgrace, Guiding Light (Octopath Traveler) Guitar Tab

Submitted: Dec 21, 2018 by guitarsvd (Last updated: Dec 29, 2018)

5
Average: 5 (2 votes)
Download | No audio :(
Game: Octopath Traveler
Composer(s): Yasunori Nishiki
Style: Arrangement, Artificial harmonics, Fingerstyle

Click here for a video example.

AutoScroll: Slow | Medium | Fast
 Flamesgrace, Guiding Light                            


                                                          Cecil Chau (GuitarSVD)
Track 1



       Q      E    E    Q      Q         Q      H          Q     
E||---------------------------------|---------------------------|
B||---------------------------------|--------------------<>3----|
G||---------<>2--<>0--<>2-----------|--<>0----<>2---------------|
D||--<>0---------------------<>0----|---------------------------|
A||---------------------------------|---------------------------|
D||---------------------------------|---------------------------|


    Q      Q      Q      Q         H.             Q     
----------------<>2-----------|--<>0------------<>3----|
--<>3------------------<>3----|----2-------------------|
---------<>2------------------|------------------------|
----0-------------------------|------------------------|
------------------------------|------------------------|
------------------------------|------------------------|


    Q      Q      Q      Q         Q      Q      Q      Q     
--<>2-----------<>5----<>5----|--<>0----<>3----<>2----<>0----|
---------<>3------------------|------------------0-----------|
------------------0-----------|----2-------------------------|
----4-------------------------|------------------------------|
------------------------------|------------------------------|
------------------------------|------------------------------|


    Q      Q      Q      Q         W                   E  E  E  E  Q    Q     
-----------------------<>0----|--<>0----------------|------------------------|
--<>3----<>2----<>3-----------|---------------------|------------------------|
----1-------------0-----------|----2----------------|--------2--0--2---------|
------------------------------|---------------------|--0-----0----------0----|
------------------------------|---------------------|-----0------------------|
------------------------------|---------------------|--0---------------------|


  E  E  H        Q       E  E  Q    Q    Q       H.           Q     
----------------------|-------------2---------|--0------------3----|
-----------------3----|--3---------------3----|--------------------|
--0-----2-------------|--------2--------------|--2-----------------|
--------0-------------|--------0--------------|--------------------|
-----2----------------|-----0-----------------|--------------------|
--0-------------------|--0--------------------|--0-----------------|


  Q    Q    Q    Q       Q    Q    Q    Q       E  E  E  E  E  E  E  E   
--2--------------0----|-------2----7----9----|--5-----------------3--2--|
--3----3----2---------|--3----3----0---------|-----------3--2-----------|
--2--------------3----|--2-------------------|--------2--------2--------|
-------4--------------|----------------------|-----2--------------2-----|
--2---------1---------|--0-------------------|--0-----------------------|
----------------------|------------6---------|--------------------------|


  W                   E  E  E  E  E  E  E  E     E  E  E  E  E  E  Q     
--0----------------|--------6--5--6-----------|--------6----------------|
-------------------|--------------6-----------|-----------8-------------|
-------------------|--7--------7--------7-----|--8-----8-----8----------|
--2----------------|--8-----8-----------8-----|-----8-----------8-------|
--0----------------|-----8-----------8-----8--|--6-----------------8----|
-------------------|--------------------------|-------------------------|


  E  E  E  E  E  E  E  E      E  E   E  E   E  E  E  E   
--------6--5--6-----6--8--|--10-----11-----10-----8-----|
-----------6--------------|-------------7---------7-----|
--7-----7-----7-----------|----------7---------7-----7--|
-----8--------------8-----|------7----------0-----------|
--8--------------8--------|---0-------------------------|
--------------------------|-----------------------------|


  E  E  E  E  E  E  E   E      E  E   E  E  E  E   E  E   
--------7--5--7-----8--10--|--11-----10-----8-----10-----|
--------0-----------0------|----------0------------0-----|
--7------------------------|------8------8-----8------8--|
-----0-----0-----0------0--|-----------------------------|
---------------------------|-----------------------------|
--5-----------5------------|---5------------5------------|


  E  E   E  E   E  E   E  E     Q    E  E  E  E  E  E     W                 
--7-----12-------------------|--5----------L--5--4--2--|--4----------------|
---------0-----12-----10-----|-------------3-----------|--0----------------|
-----0------0----------9-----|----------4--------------|--1----------------|
-------------------9------9--|-------------------------|--2----------------|
--7--------------------------|-------------------------|-------------------|
----------------9------------|--2----L-----------------|-------------------|


    E    E    E    E    E    E       E    E    E    E    E    E   
--<>5-----------------<>5-------|--<>5-----------------<>5-------|
-------<>5-------<>5-------<>5--|-------<>5-------<>5-------<>5--|
------------<>2-----------------|------------<>2-----------------|
--------------------------------|--------------------------------|
--------------------------------|--------------------------------|
--------------------------------|--------------------------------|


    E    E    E    E    E    E       H.              H        Q     
--<>5-----------------<>5-------|--<>5------------|--5--------4----|
-------<>5-------<>5-------<>5--|-----------------|--2--------0----|
------------<>2-----------------|-----------------|--2--------1----|
--------------------------------|-----------------|----------------|
--------------------------------|-----------------|--0--------2----|
--------------------------------|-----------------|----------------|


  H        Q       Q    Q    Q       Q    H           Q    Q    Q     
--5--------0----|--2----0---------|--0----5--------|--2----0---------|
--2-------------|--3---------3----|--2-------------|--3---------3----|
----------------|-----------------|----------------|-------1---------|
----------------|--0--------------|----------------|-----------------|
--4-------------|-------4----2----|--0-------------|-----------------|
----------------|-----------------|----------------|--0----2---------|


  Q    Q      Q         Q    Q    Q       Q    Q    Q       H        Q     
-------5-----------|---------2----5----|--5----4---------|--5--------4----|
--2---------<>2----|--<>0--------------|-----------------|--2--------0----|
-------------------|-------------------|-----------------|--2--------1----|
-------------------|-------------------|-----------------|----------------|
-------------------|-------------------|-----------------|--0--------2----|
--4-----------2----|----1--------------|--2---------6----|----------------|


  H        Q       Q    Q    Q       H        Q       Q    Q    Q     
--5--------0----|--2----0---------|--0--------0----|--2----0---------|
--2-------------|--3---------3----|--2-------------|--3---------3----|
----------------|-----------------|----------------|-------1---------|
----------------|--0--------------|----------------|-----------------|
--4-------------|-------4----2----|--0-------------|-----------------|
----------------|-----------------|----------------|--0----2---------|


  Q    Q    Q       Q.     E  Q       H.              Q.     E  Q     
-----------------|-----------------|--0------------|--2------0--2----|
--2----0----2----|--3---------3----|--2------------|--0--------------|
--2--------------|--4------6-------|--2------------|--0--------------|
-----------------|-----------------|---------------|-----------------|
-----------------|-----------------|--0------------|-----------------|
--4--------------|--5--------------|---------------|--5--------------|


  H.                  Q      E    E    Q      Q         Q      H.             
--0-------------||---------------------------------|------------------------||
--2-------------||---------------------------------|------------------------||
--2------------*||---------<>2--<>0--<>2-----------|--<>0----<>2------------||
---------------*||--<>0---------------------<>0----|------------------------||
--0-------------||---------------------------------|------------------------||
----------------||---------------------------------|------------------------||




Duration Legend
---------------
W - whole
H - half
Q - quarter
E - 8th
S - 16th
T - 32nd
X - 64th
. - note dotted
|-n-|  - n-tuplets


Tablature Legend
----------------
L - tied note
x - dead note
g - grace note
(n) - ghost note
> - accentuded note
NH - natural harmonic
AH - artificial harmonic
TH - tapped harmonic
SH - semi harmonic
PH - pitch harmonic
h - hammer on
p - pull off
b - bend
br - bendRelease
pb - preBend
pbr - preBendRelease
brb - bendReleaseBend
\n/ - tremolo bar dip
\n - tremolo bar dive
-/n - tremolo bar Release up
/n\ - tremolo bar inverted dip
/n - tremolo bar return
-\n - tremolo bar Release down
S - shift slide
s - legato slide
/ -  slide into from below or out of upwards
\ -  slide into from above or out of downwards
~ - vibrato
W - wide vibrato
tr - trill
TP - tremolo picking
T - tapping
S - slap
P - pop
< - fade in
^ - brush up
v - brush down
Login or Register to remove this ad.

1 comment on Flamesgrace, Guiding Light

This was really good,

5

This was really good, favorited =)