Cyrus, the Scholar (Octopath Traveler) Guitar Tab

Submitted: Jul 18, 2018 by Ranulf (Last updated: Jul 18, 2018)

5
Average: 5 (1 vote)
Download | Listen
Game: Octopath Traveler
Composer(s): Yasunori Nishiki
Style: Transcription

AutoScroll: Slow | Medium | Fast
Cyrus, the Scholar
Octopath Traveler
Nintendo Switch
Composed by Yasunori Nishiki
Tabbed by Ranulf
7/18/2018

E||------------------------6--8-----6-----------------6--8-----6-----------------------11-----9-----|
B||------6--------6--8--9--------------9--6-----8--9-----------------9-----8-----9------------------|
G||*--5---------------------------------------------------------------------------------------------|
D||*------------------------------------------------------------------------------------------------|
A||-------------------------------------------------------------------------------------------------|
E||-------------------------------------------------------------------------------------------------|

|-----6--8--------------------------6--8-----6-----------------------6-----------------------------|
|--9--------------6--------6--8--9--------------9--6-----6--8--9--------9-----8-----6-----5-----6--|
|--------------5-----------------------------------------------------------------------------------|
|--------------------------------------------------------------------------------------------------|
|--------------------------------------------------------------------------------------------------|
|--------------------------------------------------------------------------------------------------|

|-----------6--8--9-----8-----6-----------------6-----8--------8-----10-----11-----13--11-----10--|
|--6--8--9--------------------------8-----9-------------------------------------------------------|
|-------------------------------------------------------------------------------------------------|
|-------------------------------------------------------------------------------------------------|
|-------------------------------------------------------------------------------------------------|
|-------------------------------------------------------------------------------------------------|

|--8-----7-----8-------------------------------18--20-----18----------------------------18---------|
|---------------------------18-----18--20--21-----------------21--18-----18--20--21---------21-----|
|-----------------------17-------------------------------------------------------------------------|
|--------------------------------------------------------------------------------------------------|
|--------------------------------------------------------------------------------------------------|
|--------------------------------------------------------------------------------------------------|

|------------------------------------------6--8--9-----8--6-----------------------6-----------8-----|
|--20-----18-----17-----18--------6--8--9--------------------9--8--6--8-----9-----------------------|
|---------------------------------------------------------------------------------------8-----------|
|---------------------------------------------------------------------------------------------------|
|---------------------------------------------------------------------------------------------------|
|---------------------------------------------------------------------------------------------------|

|--6-----------------------------------6--8--9--8--6--------------6--8--------------18--20--21-----|
|-----9--8--6-----6-----8-----9-----6-----------------9--8-----9-----------------------------------|
|--------------9-----------------------------------------------------------------------------------|
|--------------------------------------------------------------------------------------------------|
|--------------------------------------------------------------------------------------------------|
|--------------------------------------------------------------------------------------------------|

|--20--18----------------------------18------------20-----18---------------------------------------|
|----------21--20--18--20-----21------------------------------21--20--18------18-----20-----21-----|
|-------------------------------------------20----------------------------21-----------------------|
|--------------------------------------------------------------------------------------------------|
|--------------------------------------------------------------------------------------------------|
|--------------------------------------------------------------------------------------------------|

|------18--20--21--20--18-------------18-----------------|
|--18----------------------21--20------------21-----18---|
|-------------------------------------------------------*|
|-------------------------------------------------------*|
|--------------------------------------------------------|
|--------------------------------------------------------|
Login or Register to remove this ad.