Ads

The Cliftlands (Octopath Traveler) Guitar Tab

Submitted: Jul 23, 2018 by Jerimundo (Last updated: Jul 23, 2018)

5
Average: 5 (1 vote)
Download | Listen
Game: Octopath Traveler
Composer(s): Yasunori Nishiki
Style: Arrangement, Fingerstyle

AutoScroll: Slow | Medium | Fast
                                         The Cliftlands                                            

                                                                                    Composer: Yasunori Nishiki
Arrangement: Jerimundo (Yoiti the Bardo)

(Capo 3)



     H.           E  E     Q    E  E  E  S  S Q       Q    E  E  E  Q    E   
E||---------------------|--------------------------|------------------------|
B||---------------------|--------------------------|----------0-------------|
G||---------------------|----------------2s-4-4----|--2----2-----0----------|
D||------------------0--|--2----2--0--2------------|----------------2----0--|
A||---------------2-----|-------------3------------|------------------------|
D||---------------------|--2-------2---------------|--0-------0--2----------|


  Q    E  E  E  E  Q       Q    E  E  Q    E  E     Q    E  E  E  S  S Q     
------------------------|------------------------|--------------------------|
----------------3--0----|------------------------|--------------------------|
------------------------|--2----2--0--4----------|----------------2s-4-4----|
--2----2--0--2----------|-------------4-------0--|--2----2--0--2------------|
-------------3----------|-------------2----2-----|-------------3------------|
--2-------2-------------|--0---------------------|--2-------2---------------|


                                                                  ^              
  Q    E  E  E  Q    E     E  E  E  E  E  E  E  E     E  E  E  E  E  E  S S S S  
------------------------|--------------------------|-----0--------0-------------|
----------0-------------|--------------------------|--------0-----0-------------|
--2----2-----0----------|--0-----------0-----------|-----------0--0-------------|
----------------2----0--|-----4--2--------4--2--0--|--2-----------2-----------0-|
------------------------|--3--------3--------------|--------------2-----0-2-3---|
--0-------0--2----------|--------------0-----------|--2-----------2--2----------|


  E  E  E  E  E  E  E  E     E  E  E  E  E  E  E  E     E  E  E  E  E  E  E  E   
-----0--------------------|--------------0-----------|--------------------------|
--------1--------1--------|--------1-----------1-----|--------------3-----------|
--------------2-----------|--0--------------0--------|--------4-----------4-----|
--2-----------------2-----|-----2--------2--------0--|-----4-----4-----4--------|
--0-----------0--------0--|--3-----------3--3--------|--2--------------------0--|
-----------2--------------|-----------5--------------|--------------------------|


  E  E  Q    E  E  E  E     Q    E  E  E  E  E  E     E  E  E  E  E  E  E  E   
-------------------------|----------------0--------|--------------0-----------|
-------------3-----------|-------1-----------1--0--|-----------------------0--|
--------4----------4-----|-------------------------|--2-----0-----------2-----|
-----4--0-------4-----0--|--2----2--0--2--0--2-----|-----------2-----2--------|
--2----------------2-----|--3----------3-----------|-----2-----------------2--|
-------------------------|----------5--------------|--2-----------------------|


  E  E  E  E  E  E  E  E     Q    E  E  E  E  E  E     Q    E  E  Q    E  E   
--------------------------|-------------------------|------------------------|
--0--------------1--------|-------------4-----------|------------------------|
--------0-----2-----0-----|-------4-----------------|------------------------|
-----2-----2-----------2--|--4-------------4--------|--2----2--0--2----2--0--|
--3-----------3-----------|--2----------2--0--------|--2----x--2--0----x--0--|
--------------------------|----------4--------5--4--|--2----x--2--0----x--0--|


  E  E  E  E  E  E  E  E     Q    E  E  Q    E  E     Q    E  E  E  E  E  E   
--------------------------|------------------------|-------------------------|
-----0--0-----------------|------------------------|--0-------3--0-----------|
-----0--0--------4--2-----|----------0--2----0--2--|-------5--------2--0-----|
--2-----x--------4--4--4--|--2----4--2-------0--0--|--0-------0-----4-----4--|
--3-----x--3--2-----x-----|--0----x--0-------x-----|--5----x-----2--2--------|
--------------------x-----|-------x-----0----x-----|--5----x-----------------|


                                                      ^          ^           
  Q    E  E  Q    E  E     E  E  E  E  E  E  E  E     Q    E  E  Q    E  E   
------------------------|--------------------------|------------------------|
------------------------|-----0--0-----------------|------------------------|
------------------------|-----0--0--------4--2-----|--2-------0--2----------|
--2----2--0--2----2--0--|--2-----x--------4--4--4--|--2----4-----4----5--4--|
--2----x--2--0----x--0--|--3-----x--3--2-----x-----|--0----------2----------|
--2----x--2--0----x--0--|--------------------x-----|------------------------|


              ^                                                                 
  E  E  E  E  E  E  Q       E  E  E  E  E  E  E  E     E  E  E  E  E  E  E  E   
-----0--------0----------|-----------0--------------|-----0--------------------|
--------0-----0----------|--------0--------------3--|--------1--------------3--|
-----------0--0-----x----|-----0--------------2-----|-----------0--------4-----|
--2-----------2-----x----|--2-----------0--4--------|--2--------------4--------|
--------------2-----x----|--------------------------|--3-----------2-----------|
--2-----------2--x-------|--2-----------0-----------|--------------------------|


                                         ^                                       
  E  E  E  E  E  E  E  E     E  E  E  E  Q    E  E     E  E  E  E  E  S  S Q     
--------------------------|-----0-------------------|-----------0-----0---------|
-----------1--------------|--------0-----4----------|--------0-------------0----|
--------2--------------3--|--------------4----------|-----0-----------2h-4-4----|
-----2--------------4-----|-----------4--4-------0--|--2-----2--0--2------------|
--0-----------1--4--------|--2-----------2----2-----|--------------3------------|
--------------------------|-------------------------|--2--------2---------------|


  E  E  E  E  E  E  E  E     E  E  E  E  E  E  E  E     E  E  E  E  E  E  E  E   
--------------------0-----|-----------0-----0--------|--------------------------|
-----------0--------------|--------0--------3--0-----|--------------------0-----|
--2-----2-----0--------0--|-----0-----------------0--|--2-----2--0--4-----------|
--0--4-----------2-----0--|--2-----2--0--2-----------|--0--4-----0-----4-----0--|
--------------------------|--------------3-----------|--------------2-----2-----|
--0--------0--2-----------|--2--------2--------------|--0-----------------------|


  E  E  E  E  E  S  S Q       E  E  E  E  E  E  E  E     E  E  E  E  E  E  E  E   
-----------0-----0---------|--------------------0-----|-----------0--------------|
--------0-------------0----|-----------0--------------|--------1-----------3-----|
-----0-----------2h-4-4----|--2-----2-----0--------0--|--0-----------0--2--------|
--2-----2--0--2------------|--0--4-----------2-----0--|-----4--2-----0--4--2--0--|
--------------3------------|--------------------------|--3--------3--------------|
--2--------2---------------|--0--------0--2-----------|--------------0-----------|


              ^                                                                    
  E  E  E  E  E  E  S S S S    E  E  E  E  E  E  E  E     E  E  E  E  E  E  E  E   
-----0--------0-------------|-----0--------------------|--------------0-----------|
--------0-----0-------------|--------1--------1--------|--------1-----------1-----|
-----------0--0-------------|--------------2-----------|--0--------------0--------|
--2-----------2-----------0-|--2-----------------2-----|-----2--------2--------0--|
--------------2-----0-2-3---|--0-----------0--------0--|--3-----------3--3--------|
--2-----------2--2----------|-----------2--------------|-----------5--------------|


  E  E  E  E  E  E  E  E     E  E  Q    E  E  E  E     Q    E  E  E  E  E  E   
--------------------------|-------------------------|----------------0--------|
--------------3-----------|-------------3-----------|-------1-----------1--0--|
--------4-----------4-----|--------4----------4-----|-------------------------|
-----4-----4-----4--------|-----4--0-------4-----0--|--2----2--0--2--0--2-----|
--2--------------------0--|--2----------------2-----|--3----------3-----------|
--------------------------|-------------------------|----------5--------------|


  E  E  E  E  E  E  E  E     E  E  E  E  E  E  E  E     Q    E  E  E  E  E  E   
--------------0-----------|--------------------------|-------------------------|
-----------------------0--|--0--------------1--------|-------------4-----------|
--2-----0-----------2-----|--------0-----2-----0-----|-------4-----------------|
-----------2-----2--------|-----2-----2-----------2--|--4-------------4--------|
-----2-----------------2--|--3-----------3-----------|--2----------2--0--------|
--2-----------------------|--------------------------|----------4--------5--4--|


  ^  ^ v ^     ^  ^ v ^        ^     ^           ^        ^  ^ v       ^  ^ v ^      
  E  S S E  E  E  S S E  E     E  E  E  E  E  E  E  E     E  S S E  E  E  S S E  E   
--0------0-----0------0-----|--0--7--7--------7--5--2--|--0------2--3--5------3--5--|
--0------0--3--3---------3--|-----0--0-----------------|---------------3------------|
--0------0--0--2---------2--|-----0--0--------4--4--4--|--2---------0--2------0--2--|
--2--2-2-2--0--0--0-0-2--0--|--5-----x--------4--4--4--|--2--2-2-2--2--0--0-0-0--0--|
--2--2-2-x--2--0--0-0-x--0--|--3-----x--3--2-----x-----|--0--0-0-x--0-----0-0-x-----|
--2------x--2--0------x--0--|--------------------x-----|---------x-----0------x-----|


  ^  ^ v ^                     ^  ^ v ^     ^  ^ v ^        ^     ^           ^      
  E  S S E   E  E  E  E  E     E  S S E  E  E  S S E  E     E  E  E  E  E  E  E  E   
--7------8--10--7--5--3--2--|--0------0-----0------0-----|--0--7--7--------7--5--2--|
--0------0---0--0-----------|--0------0--3--3---------3--|-----0--0-----------------|
--0--0-0-0---0-----2--------|--0------0--0--2---------2--|-----0--0--------4--4--4--|
--0--0-0-----0-----4--------|--2--2-2-2--0--0--0-0-2--0--|--5-----x--------4--4--4--|
---------x------2--2--------|--2--2-2-x--2--0--0-0-x--0--|--3-----x--3--2-----x-----|
--5------x------------------|--2------x--2--0------x--0--|--------------------x-----|


  ^          ^                         ^                                      
  Q    E  E  Q    E  E     E  E  E  E  E  E  Q       E  E  E  E  E  E  E  E   
--0----2--3--5----3--2--|--0--0--------0----------|-----------0--------------|
--1----------3----------|--------0-----0----------|--------0--------------3--|
--2----------2----------|-----------0--0-----x----|-----0--------------2-----|
--2----------4----------|--2-----------2-----x----|--2-----------0--4--------|
--0----------2----------|--------------2-----x----|--------------------------|
------------------------|--2-----------2--x-------|--2-----------0-----------|


  E  E  E  E  E  E  E  E     E  E  E  E  E  E  E  E     E  E  E  E  E  T T S E  E   
-----0--------------------|--------------------------|-----0-----------------------|
--------1--------------3--|-----------1--------------|--------0--------------------|
-----------0--------4-----|--------2--------------3--|-----------------------------|
--2--------------4--------|-----2--------------4-----|-----------4-----------------|
--3-----------2-----------|--0-----------1--4--------|--2--------------------------|
--------------------------|--------------------------|--------------5--4-5-4-2--0--|


  W                  
-------------------||
-------------------||
-------------------||
-------------------||
-------------------||
--2----------------||

Duration Legend
---------------
W - whole
H - half
Q - quarter
E - 8th
S - 16th
T - 32nd
X - 64th
. - note dotted
|-n-| - n-tuplets

Tablature Legend
----------------
L - tied note
x - dead note
h - hammer on
p - pull off
b - bend
S - shift slide
s - legato slide
/ - slide into from below or out of upwards
\ - slide into from above or out of downwards
^ - brush up
v - brush down

Login or Register to remove this ad.