Alfyn, the Apothecary (Octopath Traveler) Guitar Tab

Submitted: Oct 04, 2018 by guitarsvd (Last updated: Oct 08, 2018)

5
Average: 5 (1 vote)
Download | Listen
Game: Octopath Traveler
Composer(s): Yasunori Nishiki
Style: Artificial harmonics, Fingerstyle, Natural harmonics

Click here for a video example.

AutoScroll: Slow | Medium | Fast
   
Alfyn the Apothecary                               
Arranged by Cecil Chau (GuitarSVD)

Drop D Tuning


     E  E  E  E  Q       E  E  E  E  Q    Q         E  E  E  E  H        E   
E||-----------5--L----|--------------0----L----|--<>5-----------------------|
B||--------3--3--L----|-----------3--3----3----|-------------3--L-----------|
G||-----2-------------|--------2---------------|----------0--L--------------|
D||-------------------|-----0------------------|-------0--------------------|
A||-------------------|------------------------|----------------------------|
D||--0----------------|--4---------------------|----5--------------------4--|


  E  E  E  E  Q    Q       E  E  E  E  E  E  Q     
-------------------5----|--5----------------------|
-----------3--5----7----|-----8--------------8----|
--------0-----0---------|--7-----7--L-----7--L----|
-----0------------------|-----5--------5----------|
------------------------|-----------5-------------|
--5---------------------|--5----------------------|


                NH    NH                                    
  E   E   E     E     E  E   Q       E  E  E  E  Q    Q     
---------10--------------0--------|--2--3--0---------------|
--8p--7---------------------------|-----0-------------3----|
---------11-----------------11----|--------0---------------|
-------------------<>12-----------|-----------2------------|
-------------<>12-----------------|--3-----------3---------|
--0-------------------------------|------------------------|


  H        Q    Q       E  E  E  E  Q    E  E     E  E  E  E  Q    Q     
--0------------------|-----------5--L----------|-----------2--L---------|
--2------------------|-----------5--L----------|--------2--2------------|
--2------------------|--------7----------------|-----2------------------|
--2------------------|-----7-------------------|--2---------------------|
----------------4----|--5----------------0--5--|-------------------5----|
-----------7---------|--0----------------------|--4---------------------|


  E  E  E  E  Q.     E     E  E  E  E  Q    Q       E  E    H        Q     
------------------------|------------------------|------------------------|
-----------3--L---------|-----------3--L---------|--------2g3-------------|
--2---------------------|--L----------------2----|--2--0----0--------0----|
-----0--5---------------|-----0--5---------------|-----0----L-------------|
------------------------|------------------------|------------------------|
--5------------------0--|--5----------------4----|--2---------------------|


  E  E    H        E   E     E  E  H        Q       H        Q    Q     
--------------------------|----------------------|---------------------|
--------2g3---------------|----------------------|----------------2----|
--0-----------------------|----------------------|-----------2---------|
-----4----4--------0h--4--|--4--5--2--------0----|--2------------------|
-----5----L---------------|--3-------------------|--0------------------|
--0-----------------------|----------------------|---------------------|


  E  E  E  E  Q    E  E     E  E  E  E  Q    E  E     E  E  E  E  Q.     E   
-----------5--L----------|--0----------------------|--5---------------------|
--3-----3-------------3--|-----------2--L----3-----|-----------3--L---------|
-----2-------------2-----|--------2----------------|--------0---------------|
-------------------------|-----2-------------------|-----0------------------|
-------------------------|-------------------------|------------------------|
--0----------------------|--4----------------------|--5------------------0--|


  E  E  E  E  Q    Q        E  S S  E  E  E   E   E  E   
--L-----------7----9----|--10--9-7----------------2--0--|
-----------3------------|------7---10--------10---L-----|
--------0-----7----9----|---7-------------7-------2--0--|
-----0--------5---------|--------------7----------------|
-------------------9----|-------------------------------|
--5---------------------|---9-------L-------------------|


  E  E  E  E  Q    E  E      E  S S  E  E  E  E  E  E   
--2----------------7--9--|--10--9-7--------------2--0--|
-----------2--L----------|---7------10-----------------|
--------2----------7--9--|---0-------------0--7--2--0--|
-----2-------------------|------0----L--0--------------|
-------------------------|-----------------------------|
--4----------------------|---5-------------------------|


  E  E  E  E  Q    E  E     E  E  E  E  Q    E  E     E  E  E  Q.     E  E   
--2----------------2--5--|--0----------------2--3--|------------------------|
--3--------3--L----------|-----------1--L----------|--3--------3------0--3--|
--------2----------------|--------0----------------|--------0---------------|
-----0-------------------|-----2-------------------|-----0------------------|
-------------------------|--3----------------------|--2---------------------|
--0----------------------|-------------------------|------------------------|


  E  E  E  E  Q    Q       H        H         
------------------------|--------------------|
--3--------3--L----5----|--3--------2--------|
--------3---------------|--2--------2--------|
-----3------------------|-----------2--------|
--1---------------------|--0-----------------|
------------------------|--------------------|


  S S  S S S  S S S  S S S  S S S S  S    S S S  S S S S S S  S S S  S S S  S  
-----------5----------------------3p-2-|--------------------------------------|
---------------------------------------|--3---2h-3---2-3---2h-3---2h-3---2h-3-|
----6h-7---6h-7---6h-7---6h-7---6------|----2------2-----2------2------2------|
--7------7------7------7------7--------|--------------------------------------|
---------------------------------------|--------------------------------------|
--5-------------5----------------------|--4------------4----------------------|


  S S  S S S  S S S  S S S  S S S  S S  
-----------5----------------------10---|
---------------------------------------|
----6h-7---6h-7---6h-7---6h-7---6--7---|
--7------7------7------7------7------7-|
---------------------------------------|
--5-------------5----------------------|


   S S  S S S  S S S  S S S  S S S  S S    S S  S S S  S S S  S S S  S S S S S  
--10----5---5---------------------------|-----------5----------------------3-2-|
-----2h-3---2h-3---2h-3---2h-3---2h-3---|--------------------------------------|
----------2------2------2------2------2-|----6h-7---6h-7---6h-7---6h-7---6-----|
----------------------------------------|--7------7------7------7------7-------|
---0-------------0----------------------|--------------------------------------|
----------------------------------------|--5-------------5---------------------|


  S S S  S S S S S S  S S S  S S S  S    S S  S S S  S S S  S S S  S Q     
--------------------------------------|-----------------------------------|
--3---2h-3---2-3---2h-3---2h-3---2h-3-|--3------3------3------3------3----|
----2------2-----2------2------2------|----0h-2---0h-2---0h-2---0h-2------|
--------------------------------------|-----------------------------------|
--------------------------------------|-----------------------------------|
--4------------4----------------------|--2--------------------------------|


  H        Q    Q       E  E  E  E  Q    E  E     E  E  E  E  Q    E  E   
--0------------------|-----------5--L----------|--0----------------------|
--2-------------2----|--3-----3--3----------3--|-----------2--L----3-----|
-----------2---------|-----2-------------2-----|--------2----------------|
---------------------|-------------------------|-----2-------------------|
--0------------------|-------------------------|-------------------------|
---------------------|--0----------------------|--4----------------------|


  E  E  E  E  Q.     E     E  E  E  E  Q    Q       E  E   H        Q     
--5---------------------|-------------------5----|--5-----10--------3----|
-----------3--L---------|-----------3--L----7----|-----8-----------------|
--------0---------------|--------0---------------|---------0-------------|
-----0------------------|-----0------------------|-----------------------|
------------------------|------------------------|-----------------------|
--5------------------0--|--5---------------------|--5--------------------|


  E   E   H        Q       E  E  E  E  Q    Q       W                 
--3p--2--10--------2----|--2--3--0---------------|--0----------------|
------------------------|-----0-------------3----|--2----------------|
---------11-------------|--------0---------------|-------------------|
------------------------|-----------2------------|-------------------|
------------------------|--3-----------3---------|--0----------------|
--0---------------------|------------------------|-------------------|


  E  E  E  E  Q       E  E  E  E  Q      Q       E  E   E  E  E  E  Q     
-----------2--L----|-----------2--L----8g9----|--9-----10-----------7----|
--------3--3--L----|-----------3--L-----------|---------0--------0--L----|
-----2-------------|--------2-----------------|-----0---------0----------|
-------------------|-----0--------------------|------------0-------------|
-------------------|--------------------------|--------------------------|
--0----------------|--4-----------------------|--5-----------------------|


              |--3--|                                                     
  E  E  E  E  E  E  E  E  E     Q     H.               W                  
--5--------5--3--2-----------|-------10------------|---L----------------||
--2-----2-----------3--------|--------7------------|---L----------------||
-----2-----------------2-----|--2-----7------------|---L----------------||
--------------------------5--|--4------------------|--------------------||
--0--------------------------|---------------------|--------------------||
-----------------------------|--0------------------|---L----------------||




Duration Legend
---------------
W - whole
H - half
Q - quarter
E - 8th
S - 16th
T - 32nd
X - 64th
. - note dotted
|-n-|  - n-tuplets


Tablature Legend
----------------
L - tied note
x - dead note
g - grace note
(n) - ghost note
> - accentuded note
NH - natural harmonic
AH - artificial harmonic
TH - tapped harmonic
SH - semi harmonic
PH - pitch harmonic
h - hammer on
p - pull off
b - bend
br - bendRelease
pb - preBend
pbr - preBendRelease
brb - bendReleaseBend
\n/ - tremolo bar dip
\n - tremolo bar dive
-/n - tremolo bar Release up
/n\ - tremolo bar inverted dip
/n - tremolo bar return
-\n - tremolo bar Release down
S - shift slide
s - legato slide
/ -  slide into from below or out of upwards
\ -  slide into from above or out of downwards
~ - vibrato
W - wide vibrato
tr - trill
TP - tremolo picking
T - tapping
S - slap
P - pop
< - fade in
^ - brush up
v - brush down
Login or Register to remove this ad.