Ads

Recorder Song (Non Non Biyori) Guitar Tab

Submitted: Oct 16, 2013 by tomorning

5
Average: 5 (10 votes)
Download | Listen
Game: Non Non Biyori
Composer(s): Hiromi Mizutani
Style: Arrangement, Fingerstyle

AutoScroll: Slow | Medium | Fast
Title: Nonnonbiyori Recorder Song (from first episode BGM)
SubTitle: のんのんびより リコーダー曲(タイトル不明) 第一話より
Tempo = 72
Nylon Guitar


E |--12---|--13-12---------|--12---|--13-12---------|----------------||
B |--12---|--13----15-13---|--12---|--13----13------|----------------||
G |--12---|--13------------|--12---|--13-------13---|----------------||
D |-------|----------------|-------|----------------|--3-------------||
A |-------|----------------|-------|----------------|----------------||
E |-------|----------------|-------|----------------|-----1----------||



|--0>---|--------0>---|--0>---|--------0>---|
|-------|--1>-3>------|-------|--1>-3>------|
|--0----|--1----------|--0----|--1----------|
|-------|--3----------|--2----|--3----------|
|--3----|-------------|--3----|-------------|
|-------|-------------|-------|-------------|



|--0>---|--4----5>----3>-----0>-----|---------|-------------|
|--1----|-------3-------------------|--1L-----|-------------|
|--2----|--------------------3------|--2L-----|-------------|
|-------|-------3------------5------|---------|-------------|
|-------|---------------------------|---------|-------------|
|-------|---------------------------|--1L-----|-------------|



||-3>------------------|--3>----5>------------|--3>------------------|--3>----5>------------|
||---------------------|--------------1>------|----------------------|--------------1>------|
||o------------0-------|--------------0-------|--------------0-------|--------------0-------|
||o------0h-2----------|--------3-------------|--------0h-2----------|--------3-------------|
||----2----------------|-----3----------------|-----2----------------|-----3----------------|
||-0-------------------|--1-------------------|--0-------------------|--1-------------------|



|--3>------------------|--3>----5>----0-------|----------------------|-------|
|----------------------|----------------------|--3>----------1-------|--0----|
|--------------0-------|----------------------|-----------0----------|-------|
|--------0h-2----------|--------3-------------|--------0-------------|--0----|
|-----2----------------|-----3----------------|----------------------|-------|
|--0-------------------|--1-------------------|-----3----------------|--3----|


1.---------------------

|--0>------------------|--------------0>------|--0>------------------|--------------0>------|
|----------------------|--1>----3>----1-------|----------------------|--1>----3>----1-------|
|--------------0-------|-----------1----------|--------------0-------|-----------1----------|
|--------0h-2----------|--------3-------------|--------0h-2----------|--------3-------------|
|--3-------------------|-----3----------------|--3-------------------|-----3----------------|
|-----3----------------|--1-------------------|-----3----------------|--1-------------------|



|--0>-------------0----|--5--3--0----|-----------------3----|--1---||
|-----------0h-1-------|-------------|--1-----------1-------|------||
|--------2-------------|--3-----3----|-----------2----------|-----o||
|-----2----------------|--3----------|--------3-------------|-----o||
|--0-------------------|--------3----|-----3----------------|------||
|----------------------|--3----------|--1-------------------|------||


2.---------------------

|--5-----5-----7-------|--5-----5-----7-------|--5-----5-----7-------|--5-----5-----7-------|
|-----------8-----8----|-----------8-----8----|-----------8-----8----|-----------8-----8----|
|-----9----------------|-----9----------------|-----9----------------|-----9----------------|
|----------------------|----------------------|----------------------|----------------------|
|--8L------------------|-(8)------------------|--7L------------------|----(7)---------------|
|----------------------|----------------------|----------------------|----------------------|



|--5-----5-----7-------|--5-----5-----7-------|----------------------|-------||
|-----------8-----8----|-----------8-----8----|--------------0h-3----|-------||
|-----9----------------|-----9----------------|--------0h-2----------|--2----||
|----------------------|----------------------|-----0----------------|-------||
|--8L------------------|-(8)------------------|----------------------|-------||
|----------------------|----------------------|--3-------------------|-------||



|--0>------------------|--------------0>------|--0>------------------|--------------0>------|
|----------------------|--1>----3>----1-------|----------------------|--1>----3>----1-------|
|--------------0-------|-----------1----------|--------------0-------|-----------1----------|
|--------0h-2----------|--------3-------------|--------0h-2----------|--------3-------------|
|--3-------------------|-----3----------------|--3-------------------|-----3----------------|
|-----3----------------|--1-------------------|-----3----------------|--1-------------------|



|--0>-------------0----|--5--3--0----|-----------------3----|--1----|
|-----------0h-1-------|-------------|--1-----------1-------|-------|
|--------2-------------|--3-----3----|-----------2----------|-------|
|-----2----------------|--3----------|--------3-------------|-------|
|--0-------------------|--------3----|-----3----------------|-------|
|----------------------|--3----------|--1-------------------|-------|



|--3>------------------|--3>----5>------------|--3>------------------|--3>----5>------------|
|----------------------|--------------1>------|----------------------|--------------1>------|
|--------------0-------|--------------0-------|--------------0-------|--------------0-------|
|--------0h-2----------|--------3-------------|--------0h-2----------|--------3-------------|
|-----2----------------|-----3----------------|-----2----------------|-----3----------------|
|--0-------------------|--1-------------------|--0-------------------|--1-------------------|



|--3>------------------|--3>----5>----0-------|----------------------|-------|
|----------------------|----------------------|--3>----------1-------|--0----|
|--------------0-------|----------------------|-----------0----------|-------|
|--------0h-2----------|--------3-------------|--------0-------------|--0----|
|-----2----------------|-----3----------------|----------------------|-------|
|--0-------------------|--1-------------------|-----3----------------|--3----|



|--5-----7-----5-------|--5-----7-----5-------|--5-----7-----5-------|--5-----7-----5-------|
|-----8-----8----------|-----8-----8----------|-----8-----8----------|-----8-----8----------|
|--5>-------------9----|-----------------9----|-----------------9----|-----------------9----|
|----------------------|----------------------|----------------------|----------------------|
|----------------------|----------------------|----------------------|----------------------|
|----------------------|----------------------|----------------------|----------------------|



|--3----|--------------3L------|--3----|--------||
|--5----|-----------5----------|-------|--------||
|--7----|--------7-------------|-------|-.rest,-||
|-------|-----5----------------|-------|--------||
|--3----|--3-------------------|-------|--------||
|-------|----------------------|-------|--------||fin


Legend
L - tied note
x - dead note
h - hammer on/pull off
b - bend
s - slide
~ - vibrato
g - ghost note
> - accentuated note
t - trill
M - palm mute
. - staccato
P - popping (bass)
S - slapping (bass)
+ - tapping
W - wide vibrato
< - fade in
w - whammy bar
= - tremolo picking
v - brush up
^ - brush down
V - pick stroke up
n - pick stroke down


Login or Register to remove this ad.

6 comments on Recorder Song

Been watching this series and

5

Been watching this series and definitely remember Renge's recorder tune in the intro :3 very peaceful

nyanpasu--

nyanpasu--
nnb001.jpg

Made me loooool good XD

Made me loooool good XD

Nyan-pasu!

5

It's funky!

にゃんぱす~

5

本当にありがたい。This tune makes me cry.Thank you very much for making this tab!!

んゃんぱすう

5

Thanks Tomo