Ads

Chloe's Theme (Noir) Guitar Tab

Submitted: Sep 22, 2009 by Parhelion

5
Average: 5 (7 votes)
Download | Listen
Game: Noir
Composer(s): Yuki Kajiura
Style: Arrangement, Fingerstyle

AutoScroll: Slow | Medium | Fast
                                   Chloe's Theme                                     


Track 1
      E  E  E  E  E  S S E  E     S S E  E  E  E  E  E  S S  
E||------------------0---------|----------------------------|
B||---0-----0--2--3----3-2-----|--0-2-3--2--0-----0--2--3-2-|
G||*------------------------2--|---------------2------------|
D||*-----4---------------------|----------------------------|
A||---2------------------0-----|--2------------------0------|
E||----------------------------|----------------------------|


  E  E  E  E  E  E  E  S S    E  E  H.              E  E  E  E  E  E  E  E   
---------------------------|---------------------|--------------0-----------|
--0--------0--2--------0-2-|--3--2--0------------|--0-----2--3--------3--2--|
--0-----2-----2-----2------|--4------------------|-----------------2--------|
-----4-----------2---------|---------------------|-----4--------2-----------|
--------------0------------|--2------------------|--2-----------------------|
--3------------------------|---------------------|--------------------------|


  S S E  E  E  E  E  E  S S    S S E  E  E  E  E  E  E     E  E  H        S S S S  
---------------------0------|------2--------------0-----|-----------------------0-|
--0-2-3--2--0-----2-----3-2-|--2-3----3--0--2--------3--|--2--3--0--------0-2-3---|
---------------2------------|--0---------------2--------|--4----------------------|
--4------------2------------|---------------4-----------|-------------------------|
---------4------------------|---------------0-----------|--2----------------------|
---------------------0------|--3------------------------|-------------------------|


  Q    E  E  Q    E  E     E  E  E  S S Q    E  E     E  S S E  E  E  E  E  E   
--2----3--2--0----2--0--|-------------0-2----5--2--|--3--3-2-0--------0--------|
--3----------2----------|--3--0--2--3--------------|------------3--2-----3--2--|
------------------------|--0------------2----------|--0------------3-----------|
--0----0----------------|--------2------0----------|---------------------------|
-------------0----4-----|--------0-----------------|---------------------------|
------------------------|--3-----------------------|--3------------2-----------|


  E  E  E  S S E  E  E  E     Q    E  E  Q    E  E     E  S S E  E  E  E  E  E   
--------2---------------0--|--2----2--5--5----3--2--|--2--3-2-0--------0--3--2--|
--3--0---------------3--2--|--3----3--7--7----------|--0---------2--3-----------|
---------------------4-----|------------------------|---------2-----0-----------|
--4------------0--2--------|--0----4----------2-----|---------------0-----0-----|
--2--------2-4-------------|-------------0----------|---------0-----------------|
---------------------------|------------------------|--3------------------------|


  E  E  E  E  E  E  E  E     E  E  H.              
--2--------2--0-----------|----------------------||
-----0--3-----2--3--2-----|--2--3--0-------------||
--2--------------------2--|--2------------------*||
--------------------------|---------------------*||
--------------------------|--2-------------------||
--3-----------2-----------|----------------------||




Duration Legend
---------------
W - whole
H - half
Q - quarter
E - 8th
S - 16th


Login or Register to remove this ad.

5 comments on Chloe's Theme

Lovely piece.

5

Lovely piece.

Now try this.

Can you make one that a beginner can play? I am just starting and those cords with more then one tab is killing me. Can you try to make this a little simpler?

How much simpler do you want

How much simpler do you want it? Just the melody, only occasional bass notes, etc?

excelente, dejo estrellas!!

5

excelente, dejo estrellas!!

I love Yuki Kajiura's music,

5

I love Yuki Kajiura's music, and this piece is tabbed out nicely :)