The Day the World Revived (Chrono Trigger) Guitar Tab

Submitted: Jul 23, 2010 by TiagoRodrigues (Last updated: Jul 24, 2010)

4.5
Average: 4.5 (2 votes)
Download | Listen
Game: Chrono Trigger
Composer(s): Nobuo Uematsu, Yasunori Mitsuda, Noriko Matsueda
Style: Arrangement, Fingerstyle
Series: Chrono

AutoScroll: Slow | Medium | Fast
No Hope / Game Over

Chrono Trigger (1995)

Yasunori Mitsuda /  Nobuo Uematsu

Tiago Rodrigues - [email protected]

23/07/2010


  I didn't find any tab for this piece, so I thought I'd tab it myself. 
It's pretty straightforward, as I'm not much of a composer. There are no
extra notes, no fancy stuff, just the song, as simple as it is - and it sounds good
if well played. Hope you enjoy.


Dropped D tuning


     E  E  Q    Q    Q       W                   E  E  Q    E  E  E  E   
E||-----------------------|-------------------|-------------------1--1--|
B||--4--4--4--------------|--2----------------|--4--4--4----4--4--------|
G||-------------3----3----|-------------------|-------------------------|
D||-------------1----3----|--4----------------|-------------1-----3-----|
A||--------1--------------|-------------------|--------1----------------|
D||--1--------------------|-------------------|--1----------------------|


  H        Q    Q       Q    Q    Q    E  E     Q    Q    Q    E  E   
---------------------|-----------------------|-----------------------|
---------------------|-----------------4-----|-----------------------|
--3-------------3----|--6-----------------6--|--5--------------------|
--4--------3----1----|------------4----------|------------6-------6--|
---------------------|-------4---------------|-------6---------6-----|
---------------------|--4--------------------|--6--------------------|


  Q    Q    Q    Q       W                   E  E  Q    Q    Q     
----------------------|-------------------|-----------------------|
-----------------1----|--2----------------|--4--4--4--------------|
------------3---------|-------------------|-------------3----3----|
-------3--------------|-------------------|-------------1----3----|
--1-------------------|-------------------|--------1--------------|
----------------------|-------------------|--1--------------------|


  W                   E  E  Q    E  E  E  E     H        Q    Q     
-------------------|-------------------1--1--|---------------------|
--2----------------|--4--4--4----4--4--------|---------------------|
-------------------|-------------------------|--3-------------3----|
--4----------------|-------------1-----3-----|--4--------3----1----|
-------------------|--------1----------------|---------------------|
-------------------|--1----------------------|---------------------|


  Q    Q    Q    E  E     Q    Q    Q    Q       Q    Q    Q    Q     
-----------------------|----------------------|----------------------|
-----------------4-----|----------------------|-----------------1----|
--6-----------------6--|--5-------------------|--3---------3---------|
------------4----------|------------6---------|-------3--------------|
-------4---------------|-------6---------6----|--1-------------------|
--4--------------------|--6-------------------|----------------------|


  W                   E  E  Q    Q    Q       W                 
-------------------|-----------------------|-------------------|
-------------------|--4--4--4--------------|--2----------------|
--3----------------|-------------3----3----|-------------------|
-------------------|-------------1----3----|--4----------------|
-------------------|--------1--------------|-------------------|
-------------------|--1--------------------|-------------------|


  E  E  Q    E  E  E  E     H        Q    Q       Q    Q    Q    E  E   
-------------------1--1--|---------------------|-----------------------|
--4--4--4----4--4--------|---------------------|-----------------4-----|
-------------------------|--3-------------3----|--6-----------------6--|
-------------1-----3-----|--4--------3----1----|------------4----------|
--------1----------------|---------------------|-------4---------------|
--1----------------------|---------------------|--4--------------------|


  Q    Q    Q    E  E     Q    Q    Q    Q       W                 
-----------------------|----------------------|-------------------|
-----------------------|-----------------1----|--2----------------|
--5--------------------|------------3---------|-------------------|
------------6-------6--|-------3--------------|-------------------|
-------6---------6-----|--1-------------------|-------------------|
--6--------------------|----------------------|-------------------|


  E  E  Q    Q    Q       W                   E  E  Q    E  E  E  E   
-----------------------|-------------------|-------------------1--1--|
--4--4--4--------------|--2----------------|--4--4--4----4--4--------|
-------------3----3----|-------------------|-------------------------|
-------------1----3----|--4----------------|-------------1-----3-----|
--------1--------------|-------------------|--------1----------------|
--1--------------------|-------------------|--1----------------------|


  H        Q    Q       Q    Q    Q    E  E     Q    Q    Q    Q     
---------------------|-----------------------|----------------------|
---------------------|-----------------4-----|----------------------|
--3-------------3----|--6-----------------6--|--5-------------------|
--4--------3----1----|------------4----------|------------6---------|
---------------------|-------4---------------|-------6---------6----|
---------------------|--4--------------------|--6-------------------|


  Q    Q    Q    Q       W                  
----------------------|-------------------||
-----------------1----|-------------------||
--3---------3---------|--3----------------||
-------3--------------|-------------------||
--1-------------------|-------------------||
----------------------|-------------------||
Login or Register to remove this ad.

1 comment on The Day the World Revived

Slapping a capo on 1 makes

4

Slapping a capo on 1 makes this a toooooon easier. Nice, though!