Ads

This Game (No Game No Life) Guitar Tab

Submitted: Jan 05, 2015 by Andarnio (Last updated: Mar 22, 2015)

4.4
Average: 4.4 (5 votes)
Download | Listen
Game: No Game No Life
Composer(s): Ayako Saso, Shinji Hosoe, Takahiro Eguchi, Fumihisa Tanaka
Style: Arrangement, Fingerstyle

This song is also called Opening Theme

AutoScroll: Slow | Medium | Fast
E|----------------------|----------------------|
B|-5---4-----------4--5-|-5--------------4--5--|
G|-6------------6-------|----8--------4--------|
D|-6-------6------------|----------------------|
A|-4--------------------|---7---7--------------|
E|----------------------|-5--------------------|
 
E|-0--------------------|----------------------|
B|--------------2--4--5-|-5---4--------2--4--5-|
G|----8-----------------|-----------------2----|
D|--------6-------------|-4-------4------------|
A|---7------------------|-4--4-----------------|
E|-7--------------------|----------------------|
 
E|----------------------|----------------------|
B|-5---4---5-------4--5-|-5---4---5-------4--5-|
G|--------------4-------|--------------4--4----|
D|---------7------------|----------------------|
A|-4---4---4------------|---------7------------|
E|-4---------------7----|-5---5----------------|
 
E|----------------------|-4---5--------0--0----|
B|-5---4---5-------4--5-|---------7------------|
G|--------------4-------|-----------------1----|
D|-----------------6----|-4---4---6-------1----|
A|---------7------------|----------------------|
E|-0---0----------------|----------------------|
 
E|-0-------2----0-----0-|----------------------|
B|-2---4-----------4----|-0-----0----2---------|
G|-1---------------4----|-----------------2----|
D|-2-------2------------|----2----2----2-----2-|
A|----------------------|-0--------------------|
E|----------------------|----------------------|
 
E|-0-------2----0-----0-|-4---5---2----0-------|
B|-----4---0-------4----|-----------------5----|
G|-----4----------------|-----------------4----|
D|----------------------|---------1------------|
A|-2--------------------|-----4----------------|
E|----------------------|-4--------------------|
 
E|-0-------2----0-----0-|----------------------|
B|-2---4-----------4----|-0-----0----2---------|
G|-1---------------4----|-----------------2----|
D|-2-------2------------|----2----2----2-----2-|
A|----------------------|-0--------------------|
E|----------------------|----------------------|
 
E|-0-------2----0-----0-|-4---5---4----2--2----|
B|-----4---0-------4----|----------------------|
G|-----4----------------|-----------------1----|
D|----------------------|---------1------------|
A|-2--------------------|-----4----------------|
E|----------------------|-4--------------------|
 
E|---2--2--0-2--2--0-4-0|---2--2--0-2--2--0-2-7|
B|---2--2--2-2--2--2-2-2|---2--2--2-2--2--2-2--|
G|----------------------|----------------------|
D|----------------------|----------------------|
A|-4--------------------|-4--------------------|
E|----------------------|----------------------|
 
E|---2--2--0-2--2--0-4-0|-0---0---0---0---2--4-|
B|---2--2--2-2--2--2-2-2|-2---2---2---2--------|
G|----------------------|-2--------------------|
D|----------------------|-2--------------------|
A|-4--------------------|-0---0---2---2--------|
E|----------------------|----------------------|
 
E|---2--2--0-2--2--0-4-0|---2--2--0-2--2--0-2-7|
B|---2--2--2-2--2--2-2-2|---2--2--2-2--2--2-2--|
G|----------------------|----------------------|
D|----------------------|----------------------|
A|-4--------------------|-4--------------------|
E|----------------------|----------------------|
 
E|---2--2--0-2--2--0-4-0|-----------------0--2-|
B|---2--2--2-2--2--2-2-2|-2---2---2----2-------|
G|----------------------|-2---2---2------------|
D|----------------------|-2-------4------------|
A|-4--------------------|-0---0---2------------|
E|----------------------|----------------------|
 
E|-3-----------3--10--8-|-7-------5p3h5------3-|
B|-1--------------------|-7--------------------|
G|-0--------------------|-7--------------------|
D|-2--------------------|----------------------|
A|-3--------------------|-5-----------5--------|
E|----------------------|----------------------|
 
E|-5-----5-7----2--2--3-|-------------2--------|
B|-5---------8----------|-3------------------3-|
G|----------------------|-------4----------4---|
D|----5-----------------|----4-----4-----4-----|
A|-7--------------------|-2--------------------|
E|----------------------|----------------------|
 
E|-0---------0---2---3--|-3-----2-0-2-------3--|
B|-1---------1---1---1--|-3---------3----------|
G|-0--------------------|-----------2----------|
D|-2--------------------|-----------0----------|
A|-3--------------------|----------------------|
E|----------------------|----------------------|
 
E|-5---5----------------|----------------------|
B|-5---5----------------|----------------------|
G|-5---5----------------|------------7---5-----|
D|-7--------------------|--------------------7-|
A|-7------7--7--7--7--7-|-6---7---9------------|
E|-5--------------------|-7--------------------|
 
E|-3--------------------|-7--------5---10---8--|
B|-3--------------------|-8--------------------|
G|-4--------------------|-9--------------------|
D|-5--------------------|-9--------------------|
A|-5--------------------|-7--------------------|
E|-3--------------------|----------------------|
 
E|-7--------5---10---8--|-7---------3---5---7--|
B|-8--------------------|-0--------------------|
G|-9--------------------|-0--------------------|
D|-9--------------------|----------------------|
A|----------------------|----------------------|
E|-8--------------------|-3--------------------|
 
E|-7---5----------------|-5-------3--------5-7-|
B|---------5------------|-5----------3---------|
G|-6--------------------|-5----------2---------|
D|----------------------|----------------------|
A|-7--------------------|-3----------3---------|
E|-5--------------------|----------------------|
 
E|-8------7-5-7------5--|-7---5----------------|
B|-8----------8---------|---------5----5--7--8-|
G|-7----------7---------|-5--------------------|
D|-5--------------------|-5-------7------------|
A|----------------------|---------7------------|
E|----------------------|----------------------|
 
E|-----------8----7-----|-7--------5---10---8--|
B|-8------7--4----4-----|-8--------------------|
G|-8---------4----4-----|-9--------------------|
D|----------------------|-9--------------------|
A|----------------------|-7--------------------|
E|-7--------------------|----------------------|
 
E|-7--------5---10---8--|-7------------12------|
B|-8--------------------|-0--------12------12--|
G|-9--------------------|-0--------------------|
D|-9--------------------|----------------------|
A|----------------------|----------------------|
E|-8--------------------|-3--------------------|
 
E|-10---9---------------|---------7----5--5--7-|
B|-10-------10----5--7--|-8---5----------------|
G|-9--------------------|----------------------|
D|-7--------------------|----------------------|
A|----------------------|---------5------------|
E|----------------------|-8--------------------|
 
E|-5---3----------------|-----5----------------|
B|---------7----8----7--|-7-------8------------|
G|-------------------7--|-5--------------------|
D|---------5------------|-5-------5------------|
A|-5--------------------|-----7----------------|
E|-3--------------------|----------------------|
 
E|------5----10---------|---------7---5--5--10-|
B|-7----7----7------8-7-|-8---5----------------|
G|-7----7----7----------|---------5------------|
D|-7--------------------|---------5------------|
A|-5--------------------|----------------------|
E|----------------------|-8--------------------|
 
E|-7--------------------|----------------------|
B|----------------------|----------------------|
G|------------------7---|-9---------7-------5--|
D|----------7---5-------|-9----9----7---7---5--|
A|-5--------5-----------|-7---------5-------3--|
E|----------------------|----------------------|
 
E|----------------------|-0--------------------|
B|----------------------|-0--------------------|
G|-7--------------------|-0--------------------|
D|-7--------------------|-2--------------------|
A|-5--------------------|-2--------------------|
E|----------------------|-0--------------------|
Login or Register to remove this ad.

6 comments on This Game

Hmm bookmarked for later.

Hmm bookmarked for later.

This is a good tab, but it

4

This is a good tab, but it would really benefit from having duration markers.

how so? i spaced the notes

how so? i spaced the notes out in proportion to their timings, and the song itself is quite straightforward if you listen to the midi

Made a GP5

I made a GP5 for this tab, and exported a midi and pdf while I was at it. For anyone who is interested, everything is in a zip file here:

https://mega.nz/#!SAwA2JqY!E_VH7C9YItH_wfHe1VzDgecNUuwurDcoLh6CZphl2SI

serious question. is this tab

serious question. is this tab linked on some other website? because this is by far my most viewed tab, but it's only half decent

The website is linked up with

The website is linked up with google search, so when tabs are submitted they are easy to search which is not always the case with other websites.

Then again No Game No Life was a pretty popular series, so probably just a lot of searches for the tab.