Ads

Platinum Mukatsuku (Nisemonogatari) Guitar Tab

Submitted: May 17, 2017 by 8bitThief

5
Average: 5 (4 votes)
Download | Listen
Game: Nisemonogatari
Composer(s): Yuka Iguchi
Style: Arrangement, Fingerstyle

AutoScroll: Slow | Medium | Fast
Title: Platinum Mukatsuku
Composer: Kosaki Satoru
Anime: Nisemonogatari (Monogatari Series)
5/7/2017

Capo Fret 2


     W                   Q    Q    H           H        H         
E||-------------------|--2---------7--------|--0--------0--------|
B||--2----------------|--4------------------|--2--------0--------|
G||--1----------------|-------4-------------|--2--------2--------|
D||-------------------|---------------------|--------------------|
A||--0----------------|---------------------|--0--------0--------|
E||--0----------------|--4----4-------------|--------------------|


  H        Q    E  E     E  E  E  E  Q    E  E     E  E  E  E  Q.     E   
-------------------0--|--2--4-----0--2-------0--|--2--4-----0--0---------|
--4--------3----2-----|--------2----------2-----|--------0------------0--|
----------------------|-------------------------|------------------------|
--1-------------------|--2----------------------|--2---------------------|
--2-------------------|--0----------------------|------------------------|
----------------------|-------------------------|--4---------------------|


  Q    E  E  Q    E  E     E  E  E  E  Q    E  E     E  E  E  E  Q    E  E   
-------0--4--2----0--2--|--4-------------------0--|--2--4-----0--2-------0--|
--2---------------------|--------------0----2-----|--------2----------2-----|
--2----------2----------|-------------------------|-------------------------|
--2---------------------|--2-----2--4--2----------|--2----------------------|
--0----------2----------|--2--2--------5----------|--0----------------------|
------------------------|-------------------------|-------------------------|


  E  E  E  E  Q.     E     Q    E  E  Q    E  E     E  E  E  E  Q    E  E   
--2--4--7--2--0---------|-------0--4--2-------0--|--0----------------------|
---------------------0--|--2---------------------|--------------0----------|
------------------------|--2----------2----------|-------------------------|
--2---------------------|--2---------------------|--------2--4--0-------2--|
------------------------|--0----------2----------|-----2-------------4-----|
--4---------------------|------------------------|--0-----------0----------|


  E  E  E  E  Q    E  E     E  E  E  E  E  E  E  E     Q    E  E  Q    E  E   
-------------------------|--------------------------|------------------------|
-------------------------|--------------------------|------------------------|
-----1-------------------|-----1--------------------|----------1-------------|
--4--------2--4-------2--|--4--------2--2-----2-----|-------2-----4----2--4--|
--------4-----6----4-----|--6-----2-----4--------2--|--4---------------------|
--0-----0----------------|-----------------4-----4--|--0----------2----------|


  >                                                                            
  E  E  E  E  Q    E  E     E  E  E  E  Q    E  E     E  E  E  E  E  E  E  E   
-------------------------|-------------------------|--------------------------|
--------------0----------|-------------------------|--------0-----------------|
--1----------------------|-----1-------------------|-----1--------------------|
--2-----2--4--0-------2--|--4--------2--4-------2--|--4--------2--2-----2-----|
--2--2-------------4-----|--------4-----6----4-----|--6-----------4--------2--|
--0----------------------|--0-----0----------------|-----------------4-----4--|


  Q    E  E  Q.     E     Q    E  E  Q.     E     Q.     E  Q.     E   
-----------------------|-------------0---------|----------------------|
-----------------------|-------------5------0--|--2------0--2------0--|
----------1------------|----------1--4---------|--2---------2---------|
-------2-----4------2--|--2----4---------------|--2---------2---------|
--4----------2---------|-----------------------|--0-------------------|
--0--------------------|--4----------0---------|----------------------|


  E  E  E  E  Q.     E     E  E  E  E  Q    E  E     E  E  E  E  Q.     E   
-----0--2--4--2------0--|--2--------0--2-------0--|--2--0-----0--0---------|
--2---------------------|--------------2----------|--------2------------0--|
--1---------------------|-------------------------|------------------------|
--2-----2-----1---------|-----2--4--2--1----------|--------2-----2---------|
--0---------------------|-------------------------|--4---------------------|
------------------------|--4----------------4-----|------------------------|


  E  E  E  E  E  E  E  E     E  E  E  E  E  E  E  E     E  Q    E  E  Q    E   
--------------------------|-----0--2--4--7--4--2--0--|-----0----------0----0--|
--2--------0--2--------0--|--2-----------------------|--2-------0--2----------|
--------1-----1-----------|--------------------------|------------------------|
-----2-----2-----2--------|--------------------------|--2----------2----------|
--0-----------------0-----|--2--4--2--4--7-----2-----|--0----------2----------|
--------------------------|--------------------------|------------------------|


  E  E  E  E  H           W                   H        H         
--2--0--2--0--0--------|-------------------|--0-----------------|
-----------------------|--2----------------|--0-----------------|
--------------4--------|--1----------------|--4-----------------|
-----------4--2--------|--2----------------|--2-----------------|
-----2--4--------------|--2----------------|-----------2--------|
--0--------------------|--0----------------|--------------------|


  W                  
--7----------------||
--7----------------||
--9----------------||
-------------------||
--7----------------||
--7----------------||
Login or Register to remove this ad.