Naisho no Hanashi (Nisemonogatari) Guitar Tab

Submitted: Oct 26, 2013 by corntastic

2.333335
Average: 2.3 (3 votes)
Download | Listen
Game: Nisemonogatari
Composer(s): Yuka Iguchi
Style: Transcription

AutoScroll: Slow | Medium | Fast
Naisho no Hanashi
Nisemonogatari
ClariS
cornatstic
23 10 1013


e-------------------------------------------------------------------------
B-------------------------------------------------------------------------
G--6-------------6--7--6--------------------------------------------------
D-----9--7----7-----------9--9----7-6-7-----------------------------------
A-------------------------------------------------------------------------
E-------------------------------------------------------------------------

e-------------------------------------------------------------------------
B-----7--7-9--10----------------------------------------------------------
G--9--------------9----9--7--6--------------------------------------------
D-------------------------------9--7--9-----------------------------------
A-------------------------------------------------------------------------
E-------------------------------------------------------------------------


e-----------------------------7----9-7-6----------------------------------
B-------------------------10----------------------------------------------
G--6-------------6--7--9--------------------9--7--6-----------------------
D-----9--7----7-------------------------------------9--7--10--9--7--9--7--
A-------------------------------------------------------------------------
E-------------------------------------------------------------------------

______________________________________________________________________________________x2


e-------------------------------------------------------------------------
B---------------10-9-7----------------------------------------------------
G--6--7--9-------------9-9----7-7-7s6-------------------------------------
D-------------7-----------------------------------------------------------
A-------------------------------------------------------------------------
E-------------------------------------------------------------------------

e--------------------------------7-------9-10-9-7-7.----------------------
B-----------------7--7-7--9--10---------------------10--------------------
G------6--7-6-------------------------9-----------------------------------
D--7-9---------7----------------------------------------------------------
A-------------------------------------------------------------------------
E-------------------------------------------------------------------------

e---------------------------------------------------7-------------9--9--10--9----
B----------------------------------7----9--10----------10--10--------------------
G--9-9-9-9--9--7--6--7--6--7-6-----------------9--9------------9-----------------
D-------------------------------7------------------------------------------------
A--------------------------------------------------------------------------------
E--------------------------------------------------------------------------------

______________________________________________________________________________________


e------------7------------------------------------------------------------
B-----------------10------------------------------------------------------
G--6--7-9-------------6-6--6-6-7-9--7--6-----7--6-------------------------
D-----------------------------------------9-------------------------------
A-------------------------------------------------------------------------
E-------------------------------------------------------------------------

e-------------------------------7-9--10-9-----7---------------------------
B-------------7-------10-10--10------------10---10------------------------
G--6---------------9------------------------------------------------------
D-----9--7----------------------------------------------------------------
A-------------------------------------------------------------------------
E-------------------------------------------------------------------------

e------------7------------------------------------------------------------
B-----------------10------------------------------------------------------
G--6--7-9-------------6-6--6-6-7-9--7--6-----7--6-------------------------
D-----------------------------------------9-------------------------------
A-------------------------------------------------------------------------
E-------------------------------------------------------------------------

e-------------------------------7-9--10-9-----7-------7--*----------------
B-------------7-------10-10--10------------10---10-------10.--------------
G--6---------------9------------------------------------------------------
D-----9--7----------------------------------------------------------------
A-------------------------------------------------------------------------
E-------------------------------------------------------------------------
* Second time play e9, and the third time play everything half a step up and skip the last two notes
Login or Register to remove this ad.