King of Strangeness (Nisemonogatari) Guitar Tab

Submitted: Mar 27, 2017 by Ttegdap (Last updated: Jul 19, 2017)

5
Average: 5 (2 votes)
Download | Listen
Game: Nisemonogatari
Composer(s): Yuka Iguchi
Style: Arrangement, Fingerstyle

AutoScroll: Slow | Medium | Fast
King of Strangeness
from Nisemonogatari
Composed by Satoru Kosaki
Arranged by William Padgett

Tempo ~ 97

E|-----------|---------------0--|----------------|-----------|-------|----------0--2-------|
B|-3----2----|------0--2--3-----|-3--2--0--------|-3----2----|-------|-0--2--3---------0---|
G|-4----3----|------------------|----------------|-4----3----|-------|---------------------|
D|-4----4----|------------------|----------------|-4----4----|-------|---------------------|
A|-2----1----|------------------|----------------|-2----1----|-------|-2---------------2---|
E|-----------|------------------|----------------|-----------|-------|---------------------|


E|-----3---2-------|-----------------|-----5---------5---|-3---------------3---|-----10--9---7---|
B|-------------2---|-3-------7-------|--------8--7-------|-------------0-------|-9---------------|
G|-3---------------|-----4-----------|-------------------|-------0--2----------|-----------------|
D|---------4-------|-0-----------0---|-------------------|-2--4------------2---|-----------------|
A|-4---------------|-----------------|-6-----------------|---------------------|-7---------------|
E|-----------------|-----------------|-----------7-------|---------------------|---------9-------|


E|-7----9--7--6-----|-6-------------------|----------0--2-------|-----3---2-------|
B|---------------9--|---------------------|-0--2--3---------0---|-------------2---|
G|------------------|---------------------|---------------------|-3---------------|
D|------------------|---------------------|---------------------|---------4-------|
A|-9----------------|-------1--2--4-------|-2---------------2---|-4---------------|
E|------------------|-2--4------------2---|---------------------|-----------------|


E|-----------------|-----5---------5---|-3---------------3---|-----10--9---7---|-7----9--7--6-----|
B|-3-------7-------|--------8--7-------|-------------0-------|-9---------------|---------------9--|
G|-----4-----------|-------------------|-------0--2----------|-----------------|------------------|
D|-0-----------0---|-------------------|-2--4------------2---|-----------------|------------------|
A|-----------------|-6-----------------|---------------------|-7---------------|-9----------------|
E|-----------------|-----------7-------|---------------------|---------9-------|------------------|


E|-2-----|-7---8--7--------------|-3-----------------------|-----7-----------------|
B|-------|-----------10-8--7--10-|-0--1--0-----------------|-10-----10-8--7-----8--|
G|-------|-----------------------|----------2--0--2--0-----|-----------------9-----|
D|-------|-----------------------|-2-----------0--------4--|-----------------------|
A|-------|-----------------------|-------------------------|-7---------------------|
E|-2-----|-7---------------------|-------------------------|-9---------------------|


E|-2-----------------------|-3---5--3--2--0--------|-----0-----------------|-----------------------|
B|-3--5--3--2--0--2--0-----|-----------------3--2--|-0------3--2--0-----0--|-----------------------|
G|----------------------2--|-----------------------|-----------------3-----|-----------------------|
D|-0-----------------------|-0---------------------|-----------------------|-0---2--0--------------|
A|-------------4-----------|-2---------------------|-2---------------------|-----------4--2--1--2--|
E|-------------------------|-----------------------|-----------------------|-----------------------|


E|-----------|-7---8--7--------------|-3-----------------------|-----7-----------------|
B|-3----2----|-----------10-8--7--10-|-0--1--0-----------------|-10-----10-8--7-----8--|
G|-4----3----|-----------------------|----------2--0--2--0-----|-----------------9-----|
D|-4----4----|-----------------------|-2-----------0--------4--|-----------------------|
A|-2----1----|-7---------------------|-------------------------|-7---------0-----------|
E|-----------|-----------7-----------|-------------------------|-9---------------------|


E|-2-----------------------|-3---5--3--2--0--------|-----0-----------------|-------------------|
B|-3--5--3--2--0--2--0-----|-----------------3--2--|-0------3--2--0-----0--|-3---2--0--2----3--|
G|----------------------2--|-----------------------|-----------------3-----|-----------3----4--|
D|-0-----------------------|-0---------------------|-----------------------|-----------4----4--|
A|-------------4-----------|-2---------------------|-2---------------------|-----------1----2--|
E|-------------------------|-----------------------|-----------------------|-------------------|


E|-----------|-2-----2-----2-----2-----|-2-----2-----2-----2-----|-2-----2-----2-----2-----|
B|-3---------|----5-----3-----2-----2--|----5-----2--------------|----5-----3-----2--------|
G|-4---------|-------------------------|----------------3-----4--|----------------------4--|
D|-4---------|-------------------------|-------------------------|-0-----------------0-----|
A|-2---------|-2-----------------2-----|-4-----------------4-----|-------------------------|
E|-----------|-------------------------|-------------------------|-------------------------|


E|----2-----2-----2--5--2--|-3-----3-----3-----3-----|-4-----4-----4-----4-----|-2-----2-----2-----2-----|
B|-0-----4-----0-----------|----5-----3-----2--------|----5-----3-----0-----2--|----5-----3-----2--------|
G|-------------------------|----------------------4--|-------------------------|----------------------3--|
D|-1-----------4-----------|-2-----------------2-----|-3-----------------3-----|-4-----------------4-----|
A|-------------------------|-------------------------|-------------------------|-------------------------|
E|-------------------------|-------------------------|-------------------------|-------------------------|


E|-2--2--0--2--2--0--------|-2-----2-----2-----2-----|-2-----2-----2-----2-----|-2-----2-----2-----2-----|
B|-------------------3--2--|----5-----3-----2-----2--|----5-----2-----------0--|----5-----3-----2--------|
G|-------------------------|-------------------------|----------------3--------|----------------------4--|
D|-4-----------------------|-------------------------|-------------------------|-0-----------------0-----|
A|-------------------------|-2-----------------2-----|-4-----------------4-----|-------------------------|
E|-------------2-----------|-------------------------|-------------------------|-------------------------|


E|----2-----2-----2--5--2--|-3-----3-----3-----3-----|-4-----4-----4-----4-----|-2-----2-----2-----2-----|
B|-0-----4-----0-----------|----5-----3-----2-----0--|----5-----3--------------|----5-----3-----2--------|
G|-------------------------|-------------------------|----------------4-----6--|----------------------3--|
D|-1-----------4-----------|-2-----------------2-----|-3-----------------3-----|-4-----------------4-----|
A|-------------------------|-------------------------|-------------------------|-------------------------|
E|-------------------------|-------------------------|-------------------------|-------------------------|


E|-2----2--0--------|----------0--2-------|-----3---2-------|-----------------|-----5---------5---|
B|------------3--2--|-0--2--3---------0---|-------------2---|-3-------7-------|--------8--7-------|
G|------------------|---------------------|-3---------------|-----4-----------|-------------------|
D|-4----------------|---------------------|---------4-------|-0-----------0---|-------------------|
A|------------------|-2---------------2---|-4---------------|-----------------|-6-----------------|
E|------2-----------|---------------------|-----------------|-----------------|-----------7-------|


E|-3---------------3---|-----10--9---7---|-7----9--7--6--4--|-6-------------------|
B|-------------0-------|-9---------------|------------------|---------------------|
G|-------0--2----------|-----------------|------------------|---------------------|
D|-2--4------------2---|-----------------|------------------|---------------------|
A|---------------------|-7---------------|-9----------------|-------1--2--4-------|
E|---------------------|---------9-------|------------------|-2--4------------2---|


E|----------0--2-------|-----3---2-------|-----------------|-----5---------5---|-------------7---0---|
B|-0--2--3---------0---|-------------2---|-3-------7-------|--------8--7-------|----7--8--10---------|
G|---------------------|-3---------------|-----4-----------|-------------------|-9-------------------|
D|---------------------|---------4-------|-0-----------0---|-------------------|---------------------|
A|-2---------------2---|-4---------------|-----------------|-6-----------------|-7-----------0---7---|
E|---------------------|-----------------|-----------------|-----------7-------|---------------------|


E|----0-----6--7-------|---------------------|-------|----------5--7-------|----------6--7-------|
B|-------7-------------|-3----2--3--2--0-----|-0-----|-5--7--8---------5---|-------7---------3---|
G|-7---------------7---|------------------3--|-------|---------------------|-7--9----------------|
D|-0---------------0---|-4-------------------|-------|-5---------------5---|-----------------4---|
A|---------------------|------1--------------|-2-----|---------------------|-9-------------------|
E|-------------7-------|---------------------|-------|---------------------|---------------------|


E|---------------------|-------|
B|-3----2--3--2--0-----|-------|
G|-4----------------3--|-4-----|
D|-4----4--------------|-4-----|
A|-2-------------------|-2-----|
E|---------------------|-2-----|




Capo 2


E|-----------|------------------|----------------|-----------|-------|-------------0-------|
B|-1----0----|---------0--1--3--|-1--0-----------|-1----0----|-------|----0--1--3----------|
G|-2----1----|------2-----------|-------2--------|-2----1----|-------|-2---------------2---|
D|-2----2----|------------------|----------------|-2----2----|-------|---------------------|
A|-0---------|------------------|----------------|-0---------|-------|-0---------------0---|
E|------4----|------------------|----------------|------4----|-------|---------------------|


E|-----1---0-------|---------0-------|-----3--1--0---3---|-1-------------------|-----8---7---5---|
B|-------------0---|-1---------------|-------------------|-----------------6---|-7---------------|
G|-1---------------|-----2-----------|-------------------|----------0--2-------|-----------------|
D|---------2-------|-----------------|-------------------|-0--2--3---------0---|-0---------------|
A|-2---------------|-3-----------3---|-4---------0-------|---------------------|-----------------|
E|-----------------|-----------------|-------------------|---------------------|---------7-------|


E|-5----7--5--4-----|-4-------------------|-------------0-------|-----1---0-------|
B|---------------7--|---------------------|----0--1--3----------|-------------0---|
G|------------------|---------------------|-2---------------2---|-1---------------|
D|------------------|---------------------|---------------------|---------2-------|
A|-7----------------|----------0--2-------|-0---------------0---|-2---------------|
E|------------------|-0--2--4---------0---|---------------------|-----------------|


E|---------0-------|-----3--1--0---3---|-1-------------------|-----8---7---5---|-5----7--5--4-----|
B|-1---------------|-------------------|-----------------6---|-7---------------|---------------7--|
G|-----2-----------|-------------------|----------0--2-------|-----------------|------------------|
D|-----------------|-------------------|-0--2--3---------0---|-0---------------|------------------|
A|-3-----------3---|-4---------0-------|---------------------|-----------------|-7----------------|
E|-----------------|-------------------|---------------------|---------7-------|------------------|


E|-0-----|-5---6--5--------------|-1-----------------------|------------------------|
B|-------|-----------8--6--5--6--|-------------------------|-8---10--8--6--------6--|
G|-------|-----------------------|-2--3--2--0-----0--------|---------------9--7-----|
D|-------|-----------------------|-0-----------3-----3--2--|------------------------|
A|-------|-0---------------------|-------------3-----------|------------------------|
E|-0-----|-----------------------|-------------------------|-7----------------------|


E|-0-----------------------|-1---3--1--0-----------|-----------------------|-----------------------|
B|-1--3--1--0-----0--------|--------------3--1--0--|-----3--1--0-----------|-----------------------|
G|-------------2-----2--0--|-----------------------|-2------------2--1--2--|-----------------------|
D|-------------------------|-----------------------|-----------------------|-----0-----------------|
A|-3-----------2-----------|-0---------------------|-0---------------------|-3------3--2--0-----0--|
E|-------------------------|-----------------------|-----------------------|-----------------4-----|


E|-----------|-5---6--5--------------|-1-----------------------|------------------------|
B|-1----0----|-----------8--6--5--8--|-------------------------|-8---10--8--6--------6--|
G|-2----1----|-----------------------|-2--3--2--0-----0--------|---------------9--7-----|
D|-2----2----|-0---------------------|-0-----------3-----3--2--|------------------------|
A|-0---------|-----------0-----------|-------------3-----------|------------------------|
E|------4----|-----------------------|-------------------------|-7----------------------|


E|-0-----------------------|-1---3--1--0-----------|-----------------------|-------------------|
B|-1--3--1--0-----0--------|--------------3--1--0--|-----3--1--0-----------|-1---0-----0----1--|
G|-------------2-----2--0--|-----------------------|-2------------2--1--2--|--------2--1----2--|
D|-------------------------|-----------------------|-----------------------|-----------2----2--|
A|-3-----------2-----------|-0---------------------|-0---------------------|----------------0--|
E|-------------------------|-----------------------|-----------------------|-----------4-------|


E|-----------|-0-----0-----0-----0-----|-0-----0-----0-----0-----|-0-----0-----0-----0-----|
B|-1---------|----3-----1-----0-----0--|----3-----0--------------|----3-----1-----0--------|
G|-2---------|-------------------------|----------------1-----2--|----------------------2--|
D|-2---------|-------------------------|-------------------------|-------------------------|
A|-0---------|-0-----------------0-----|-2-----------------2-----|-3-----------------3-----|
E|-----------|-------------------------|-------------------------|-------------------------|


E|----0-----0-----0--3--0--|-1-----1-----1-----1-----|-2-----2-----2-----2-----|-0-----0-----0-----0-----|
B|-------2-----------------|----3-----1-----0--------|----3-----1-----------0--|----3-----1-----0--------|
G|-2-----------2-----------|----------------------2--|----------------2--------|----------------------1--|
D|-------------2-----------|-0-----------------0-----|-1-----------------1-----|-2-----------------2-----|
A|-4-----------------------|-------------------------|-------------------------|-------------------------|
E|-------------------------|-------------------------|-------------------------|-------------------------|


E|-0--0-----0--0-----------|-0-----0-----0-----0-----|-0-----0-----0-----0-----|-0-----0-----0-----0-----|
B|-------3--------3--1--0--|----3-----1-----0-----0--|----3-----0--------------|----3-----1-----0--------|
G|-------------------------|-------------------------|----------------1-----2--|----------------------2--|
D|-2-----------------------|-------------------------|-------------------------|-------------------------|
A|-------------------------|-0-----------------0-----|-2-----------------2-----|-3-----------------3-----|
E|-------------0-----------|-------------------------|-------------------------|-------------------------|


E|----0-----0-----0--3--0--|-1-----1-----1-----1-----|-2-----2-----2-----2-----|-0-----0-----0-----0-----|
B|-------2-----------------|----3-----1-----0--------|----3-----1-----------0--|----3-----1-----0--------|
G|-2-----------2-----------|----------------------2--|----------------2--------|----------------------1--|
D|-------------2-----------|-0-----------------0-----|-1-----------------1-----|-2-----------------2-----|
A|-4-----------------------|-------------------------|-------------------------|-------------------------|
E|-------------------------|-------------------------|-------------------------|-------------------------|


E|-0----0-----------|-------------0-------|-----1---0-------|---------0-------|-----3--1--0---3---|
B|---------3--1--0--|----0--1--3----------|-------------0---|-1---------------|-------------------|
G|------------------|-2---------------2---|-1---------------|-----2-----------|-------------------|
D|-2----------------|---------------------|---------2-------|-----------------|-------------------|
A|------------------|-0---------------0---|-2---------------|-3-----------3---|-4---------0-------|
E|------0-----------|---------------------|-----------------|-----------------|-------------------|


E|-1-------------------|-----8---7---5---|-5----7--5--4-----|-4-------------------|
B|-----------------6---|-7---------------|---------------7--|---------------------|
G|----------0--2-------|-----------------|------------------|---------------------|
D|-0--2--3---------0---|-0---------------|------------------|---------------------|
A|---------------------|-----------------|-7----------------|----------0--2-------|
E|---------------------|---------7-------|------------------|-0--2--4---------0---|


E|-------------0-------|-----1---0-------|---------0-------|-----3--1--0---3---|----0--1--3--5-------|
B|----0--1--3----------|-------------0---|-1---------------|-------------------|-3---------------3---|
G|-2---------------2---|-1---------------|-----2-----------|-------------------|---------------------|
D|---------------------|---------2-------|-----------------|-------------------|-0---------------0---|
A|-0---------------0---|-2---------------|-3-----------3---|-4---------0-------|---------------------|
E|---------------------|-----------------|-----------------|-------------------|-------------3-------|


E|-------0--4--5-------|---------------------|-------|----0--1--3--5-------|-------0--4--5-------|
B|-1--3------------1---|-1----0--1--0--------|-------|-3---------------3---|-1--3------------1---|
G|---------------------|---------------2--1--|-2-----|---------------------|---------------------|
D|---------------------|-2-------------------|-------|-3---------------3---|-2---------------2---|
A|-3-----------0---3---|---------------------|-0-----|---------------------|---------------------|
E|---------------------|------4--------------|-------|---------------------|---------------------|


E|---------------------|-------|
B|-1----0--1--0--------|-------|
G|-2-------------2--1--|-2-----|
D|-2----2--------------|-2-----|
A|-0-------------------|-0-----|
E|---------------------|-0-----|
Login or Register to remove this ad.

4 comments on King of Strangeness

A slight change added here

At MechaKrauser's suggestion I have also tabbed a capo 2 Version of this song that is easier to play and doesnt have that weird stretch part anymore. Note that there are some small changes in the music and also the tab between the pdf and tuxguitar versions are actually different on purpose (for those players to decide which is better because I cant decide XD)

Hm. On the top of the page is

Hm. On the top of the page is says "Composer(s): Yuka Iguchi". I assume that's a typo. Anyway, this is pretty awesome tab. Well done.

Not I see what you are seeing..

Not sure where the typo even is atm, was looking for it but cant seem to find it anywhere. Also, still dont know how to show the alternate version (capo 2) that I made for this song, as I think it is much better just because it is a good bit easier to play.

This is really good, and

5

This is really good, and thanks for the capo 2, I like that part a little better, but both are really good!