Ads

Futakotome (Nisemonogatari) Guitar Tab

Submitted: Jan 05, 2014 by corntastic

1
Average: 1 (2 votes)
Download | Listen
Game: Nisemonogatari
Composer(s): Yuka Iguchi
Style: Transcription

AutoScroll: Slow | Medium | Fast
Futakotome
Nisemonogatari
Satoru Kosaki, Chiwa Saito
corntastic
31/12/13

e----------------------------------4--5--4--------------------------------
B-------5--4-----------------5--7-----------------------------------------
G--4----------6--4--------4-----------------4-----------------------------
D-------------------------------------------------------------------------
A-------------------------------------------------------------------------
E-------------------------------------------------------------------------
 
e----------------------------------4--5--4--------------------------------
B-------5--4-----------------5--7-----------5-----------------------------
G--4----------6--4--------4-----------------------------------------------
D-------------------------------------------------------------------------
A-------------------------------------------------------------------------
E-------------------------------------------------------------------------

e----------------------------------4--5--4--------------------------------
B-------5--4-----------------5--7-----------------------------------------
G--4----------6--4--------4-----------------4-----------------------------
D-------------------------------------------------------------------------
A-------------------------------------------------------------------------
E-------------------------------------------------------------------------

e--------------------------------7--5--4--5--4----------------------------
B-----------5--4--------------------------------5-------------------------
G--4--4--4--------6--4--------4-------------------------------------------
D-------------------------------------------------------------------------
A-------------------------------------------------------------------------
E-------------------------------------------------------------------------

______________________________________________________________________________________


e-------------------------------------------------------------------------
B--5--4--5----5--4--5-----5--4--5----5--7--5------------------------------
G-------------------------------------------------------------------------
D-------------------------------------------------------------------------
A-------------------------------------------------------------------------
E-------------------------------------------------------------------------

e-----------------------------------------4-------------------------------
B--5--4--5----5--4--5----5--4--5----5--7----------------------------------
G-------------------------------------------------------------------------
D-------------------------------------------------------------------------
A-------------------------------------------------------------------------
E-------------------------------------------------------------------------

e-------------------------------------------------------------------------
B--5--4--5----5--4--5----5--4--5----5--7--5-------------------------------
G-------------------------------------------------------------------------
D-------------------------------------------------------------------------
A-------------------------------------------------------------------------
E-------------------------------------------------------------------------

e-------------------------------------------------------------------------
B--5--4--5----5--4--5----5--4--5----5--4--5-------------------------------
G-------------------------------------------------------------------------
D-------------------------------------------------------------------------
A-------------------------------------------------------------------------
E-------------------------------------------------------------------------

e-------------------------------------------------------------------------
B--5--4--5--4--5--4--5--4--5--4--5--4--5--4--5--4--5----------------------
G-------------------------------------------------------------------------
D-------------------------------------------------------------------------
A-------------------------------------------------------------------------
E-------------------------------------------------------------------------

______________________________________________________________________________________


e------------------------------------4-5-7--------7-----------------------
B-------5--5----5----5----7--7--7-----------5--5-----5--5-----------------
G--4----------------------------------------------------------------------
D-------------------------------------------------------------------------
A-------------------------------------------------------------------------
E-------------------------------------------------------------------------

e----------4--5--4--------------------------------------------------------
B-------5-----------7-----------------------------------------------------
G--4----------------------------------------------------------------------
D-------------------------------------------------------------------------
A-------------------------------------------------------------------------
E-------------------------------------------------------------------------

e------------------------------------4-5-7--------9-----------------------
B-------5--5----5----5----7--7--7-----------5--5-----7--7-----------------
G--4----------------------------------------------------------------------
D-------------------------------------------------------------------------
A-------------------------------------------------------------------------
E-------------------------------------------------------------------------

e----------4--5--7--------------------------------------------------------
B--5----7-------------7----5----------------------------------------------
G-------------------------------------------------------------------------
D-------------------------------------------------------------------------
A-------------------------------------------------------------------------
E-------------------------------------------------------------------------

e-------4----5----4-------------------------7-----------------------------
B--5-------------------7----7----5----4--5--------------------------------
G-------------------------------------------------------------------------
D-------------------------------------------------------------------------
A-------------------------------------------------------------------------
E-------------------------------------------------------------------------

e--4--4-4--5--7--7---------------4----------------------------------------
B----------------------7----7---------7----5--5---------------------------
G-------------------------------------------------------------------------
D-------------------------------------------------------------------------
A-------------------------------------------------------------------------
E-------------------------------------------------------------------------

______________________________________________________________________________________


e--9----7----6-------------------6----------------------------------------
B-----------------9----7----9---------------------------------------------
G-------------------------------------6-----------------------------------
D-------------------------------------------------------------------------
A-------------------------------------------------------------------------
E-------------------------------------------------------------------------

e--7----5----4-------------------4----------------------------------------
B-----------------7----5----7---------------------------------------------
G-------------------------------------4-----------------------------------
D-------------------------------------------------------------------------
A-------------------------------------------------------------------------
E-------------------------------------------------------------------------

e--4----2----0------------------------7-----------------------------------
B-----------------4----2----4----5----------------------------------------
G-------------------------------------------------------------------------
D-------------------------------------------------------------------------
A-------------------------------------------------------------------------
E-------------------------------------------------------------------------

e----------0---------------------2-------------4--------------------------
B--0--0---------------------2-------------4-------------------------------
G-------------------------------------------------------------------------
D-------------------------------------------------------------------------
A-------------------------------------------------------------------------
E-------------------------------------------------------------------------

______________________________________________________________________________________


e------------------------------------4-5-7--------7-----------------------
B-------5--5----5----5----7--7--7-----------5--5-----5--5-----------------
G--4----------------------------------------------------------------------
D-------------------------------------------------------------------------
A-------------------------------------------------------------------------
E-------------------------------------------------------------------------

e----------4--5--4--------------------------------------------------------
B-------5-----------7-----------------------------------------------------
G--4----------------------------------------------------------------------
D-------------------------------------------------------------------------
A-------------------------------------------------------------------------
E-------------------------------------------------------------------------

e------------------------------------4-5-7--------9-----------------------
B-------5--5----5----5----7--7--7-----------5--5-----7--7-----------------
G--4----------------------------------------------------------------------
D------------------------------------------------------------------------- 
A-------------------------------------------------------------------------
E-------------------------------------------------------------------------

e----------4--5--7--------------------------------------------------------
B--5----7-----------------------------------------------------------------
G-------------------------------------------------------------------------
D-------------------------------------------------------------------------
A-------------------------------------------------------------------------
E-------------------------------------------------------------------------


e------------------------------------4-5-7--------7-----------------------
B-------5--5----5----5----7--7--7-----------5--5-----5--5-----------------
G--4----------------------------------------------------------------------
D-------------------------------------------------------------------------
A-------------------------------------------------------------------------
E-------------------------------------------------------------------------

e----------4--5--4--------------------------------------------------------
B-------5-----------7-----------------------------------------------------
G--4----------------------------------------------------------------------
D-------------------------------------------------------------------------
A-------------------------------------------------------------------------
E-------------------------------------------------------------------------

e------------------------------------4-5-7--------9-----------------------
B-------5--5----5----5----7--7--7-----------5--5-----7--7-----------------
G--4----------------------------------------------------------------------
D------------------------------------------------------------------------- 
A-------------------------------------------------------------------------
E-------------------------------------------------------------------------

e----------4--5--7--------------------------------------------------------
B--5----7-------------7----5----------------------------------------------
G-------------------------------------------------------------------------
D-------------------------------------------------------------------------
A-------------------------------------------------------------------------
E-------------------------------------------------------------------------

e-------4----5----4-------------------------7-----------------------------
B--5-------------------7----7----5----4--5--------------------------------
G-------------------------------------------------------------------------
D-------------------------------------------------------------------------
A-------------------------------------------------------------------------
E-------------------------------------------------------------------------

e--4--4-4--5--7--7---------------4----------------------------------------
B----------------------7----7---------7----5--5---------------------------
G-------------------------------------------------------------------------
D-------------------------------------------------------------------------
A-------------------------------------------------------------------------
E-------------------------------------------------------------------------
Login or Register to remove this ad.