Ads

Illia's Theme (Legend of Zelda: Twilight Princess) Guitar Tab

Submitted: Sep 30, 2007 by archard (Last updated: Oct 05, 2007)

4.75
Average: 4.8 (4 votes)
Download | Listen
Game: Legend of Zelda: Twilight Princess
Composer(s): Koji Kondo, Asuka Ohta, Toru Minegishi
Style: Transcription
Series: Legend of Zelda

AutoScroll: Slow | Medium | Fast
Illia
The Legend of Zelda: Twilight Princess
Composed by Koji Kondo

8/1/06

e--8-7-------8-7-------8-7-----------5-3--------
B------8---------8---------8-----6-5------------
G-----------------------------------------------
D-----------------------------------------------
A-----------------------------------------------
E-----------------------------------------------

e--8-7-------8-7-------8-7--------------
B------8---------8---------8-----5-6-5-1
G---------------------------------------
D---------------------------------------
A---------------------------------------
E---------------------------------------

e------3-----1-0-5-3-----1-0-5-3-----1-0---0---
B--0-1-----------------------------------------
G----------------------------------------2-----
D----------------------------------------------
A----------------------------------------------
E----------------------------------------------

e--5-7-8-----7-5-10-8-----10-12-13-----13h15---10
B------------------------------------------------
G------------------------------------------------
D------------------------------------------------
A------------------------------------------------
E------------------------------------------------
Login or Register to remove this ad.

10 comments on Illia's Theme

Nice, sounds the like the

Nice, sounds the like the version of song i d/l, (im too poor to get it :s, and i only want to play it on wii, so thats a wii and a zelda :( )

Woww!!! this tab is exelent

Woww!!! this tab is exelent , you´ve done a great job on this one , I love the song .

Keep on the good work , as far as i can tell , you´re amazing.

amazing....just like the

amazing....just like the game.

Pretty good. Sounds right.

Pretty good. Sounds right. :)

@Dan you don't have to money

@Dan
you don't have to money to buy it.
being too poor is something different entirely.

My favorite song ever, it's

My favorite song ever, it's better now because I can play it! thnx, good work!

There's an 8 missing in this

There's an 8 missing in this part
e--8-7-------8-7-------8-7-----------5-3--------
B------8---------8---------8-----6-5------------
G-----------------------------------------------
D-----------------------------------------------
A-----------------------------------------------
E-----------------------------------------------

I noticed it should be like this:
e--8-7-------8-7-------8-7-----------5-3--------
B------8---------8---------8--8--6-5------------
G-----------------------------------------------
D-----------------------------------------------
A-----------------------------------------------
E-----------------------------------------------

Hope you don't mind me correcting it :S

no it doesn't sound like

no it doesn't sound like that i played it ur way and it sounded horrible the original is better you don't know what your talking about.

Maybe it's just me but I

Maybe it's just me but I think that instead of,

e--8-7-------8-7-------8-7-----------5-3--------
B------8---------8---------8-----6-5------------

It sounds beter

e--8-7-------8-7-------8-7-----------5-3--------
B------8---------8---------8-----5-6------------

I think....

i think you'll find this gives a second dimension to the song

instead of simply 8-7-8

play a 5-8-5 to flavour it up a bit

e--8-7-------5
B------8---8--
G--------5----
D--------------
A--------------
E--------------

The last three notes, if played quietly or on another guitar, act as the second track in the song.
I think its like a marimba or something.