Ads

Boss Defeated (Legend of Zelda: Twilight Princess) Guitar Tab

Submitted: Sep 30, 2007 by archard

4.22222
Average: 4.2 (9 votes)
Download | Listen
Game: Legend of Zelda: Twilight Princess
Composer(s): Koji Kondo, Asuka Ohta, Toru Minegishi
Style: Transcription
Series: Legend of Zelda

AutoScroll: Slow | Medium | Fast
Boss Defeated
The Legend of Zelda: Twilight Princess
Composed by Koji Kondo

12/22/06

e---------------------------------
B---------------------------------
G-----13---------13---------13-11-
D--11----13---11----13---11-------
A---------------------------------
E---------------------------------

e---------------------------------
B---------------------------------
G-----13---------13---------13----
D--11----13---11----13---11----13-
A---------------------------------
E---------------------------------

e---------------------------------
B---------------------------------
G-----13---------13---------13-11-
D--11----13---11----13---11-------
A---------------------------------
E---------------------------------

e----11----------------------------------------
B--9----11-----9------------11-----------------
G----------------12-8-----8----10--------------
D-------------------------------------13-12----
A-------------------------------------------13-
E----------------------------------------------

And it's basically a repeat of these lines.
Login or Register to remove this ad.

5 comments on Boss Defeated

good job, sounds exactly

good job, sounds exactly right to me. well, I'm off, going to buy new shoes.

粉に痴話 羞じ美 

粉に痴話 羞じ美 まで 木輪 Tom
な枝輪 ナに デスカ? オゲンキ ですか?
殺すぞ!
むんか
ブッガ
覇は

Nice

5

Nice

I would agree with anonymous

I would agree with anonymous if I could read japanese.

Yep....

5

Yep, this sounds perfect