With Mila's Divine Protection (Super Smash Bros. Brawl) Guitar Tab

Submitted: Dec 12, 2008 by hslesperance (Last updated: Mar 30, 2014)

4.2
Average: 4.2 (5 votes)
Download | Listen
Game: Super Smash Bros. Brawl
Composer(s): Various Composers
Style: Transcription
Series: Super Smash Bros.

This song is also called Celica Map 1

AutoScroll: Slow | Medium | Fast
With Mila's Divine Protection
Super Smash Bros. Brawl
Composed by Yuka Tsujiyoko
Arranged by Noriyuki Iwadare
Tabbed by hslesperance
10/25/08

Standard Tuning

e------------------------------------------------------------
B-------------------------------6-6--6-6--6-6--6-6--7-7--7---
G---3-3--3-3--3-3--3-3--4-4--4--3-3--3-3--3-3--3-3--4-4--4---
D---3-3--3-3--3-3--3-3--4-4--4-------------------------------
A------------------------------------------------------------
E------------------------------------------------------------

e---------------------4----4-6--7-4-6----------6-7--6-7-9----
B---4h6----4-6-7--6-7----7-------------------9---------------
G------------------------------------------------------------
D------------------------------------------------------------
A------------------------------------------------------------
E------------------------------------------------------------

e------9-11--12---------------13-----13-----13-----13----13--
B---12-----------12-11------------11-----11----11-----11-----
G------------------------------------------------------------
D------------------------------------------------------------
A------------------------------------------------------------
E------------------------------------------------------------

e------13-----13----13-----13-----13----13-----13------------
B---11----11-----11-----11----11-----11-----11-----11--------
G------------------------------------------------------------
D------------------------------------------------------------
A------------------------------------------------------------
E------------------------------------------------------------

e---13----13-----13-----13----13-----13----------------------
B------11-----11----11-----11-----11----11-------------------
G------------------------------------------------------------
D------------------------------------------------------------
A------------------------------------------------------------
E------------------------------------------------------------

e------------------------------------------------------------
B-------------------------------6-6--6-6--6-6--6-6--7-7--7---
G---3-3--3-3--3-3--3-3--4-4--4--3-3--3-3--3-3--3-3--4-4--4---
D---3-3--3-3--3-3--3-3--4-4--4-------------------------------
A------------------------------------------------------------
E------------------------------------------------------------

e---11h13----14-11-13----11----------------------------------
B---------------------14----13-14-11-13----11----9----7------
G---------------------------------------13----11---10---8----
D------------------------------------------------------------
A------------------------------------------------------------
E------------------------------------------------------------

e------------------------------------------------------------
B--6---4---2---1---------------------------------------------
G----6---5---3---1-3---1-------------------------------------
D--------------------4---3-1-3--------4--------5--------6----
A----------------------------1--------2--------3--------4----
E------------------------------------------------------------

e------------------------------------------------------------
B------------------------------------------------------------
G------------------------------------------------------------
D---3---------4--------5--------6--------3-------------------
A---1---------2--------3--------4----------------------------
E------------------------------------------------------------

e------------------------------------------------------------
B------------------------------------------------2----2-4----
G--------------1----1-3--4-1-3--------1-3-4--3-4----4--------
D---1-3-4--3-4----4------------------------------------------
A------------------------------------------------------------
E------------------------------------------------------------

e----------------13----13-----13-----13----13-----13---------
B---5---------------11-----11----11-----11-----11----11------
G-----4-3----------------------------------------------------
D------------------------------------------------------------
A------------------------------------------------------------
E------------------------------------------------------------

e---13----13-----13-----13----13-----13-----13----13---------
B------11-----11----11-----11-----11----11-----11------------
G------------------------------------------------------------
D------------------------------------------------------------
A------------------------------------------------------------
E------------------------------------------------------------

e------13-----13----13-----13--------------------------------
B---11----11-----11-----11-----------------------------------
G-----------------------------3-3--3-3--3-3--3-3--4-4--4-----
D-----------------------------3-3--3-3--3-3--3-3--4-4--4-----
A------------------------------------------------------------
E------------------------------------------------------------

e------------------------------------------------------------
B------------------------------------------------------------
G---3-3--3-3--3-3--3-3--4-4--4--3-3--3-3--3-3--3-3--4-4--4---
D---3-3--3-3--3-3--3-3--4-4--4--3-3--3-3--3-3--3-3--4-4--4---
A------------------------------------------------------------
E------------------------------------------------------------

e------------------------------------------------------------
B---6-6--6-6--6-6--6-6--7-7--7----9--11----------------------
G---3-3--3-3--3-3--3-3--4-4--4----6--7-----------------------
D------------------------------------------------------------
A------------------------------------------------------------
E------------------------------------------------------------

e------------------------------------------------------------
B-------------------2----------------------------------------
G--------------3---------4h6-----------------1h3--------2----
D---1h3-----------------------------4------------------------
A------------------------------------------------------------
E------------------------------------------------------------

e------------------------------------------------------------
B-------1------------------------------------2----4h6--------
G---3------3--------2-------------------3--------------------
D----------------------------1h3-----------------------------
A------------------------------------------------------------
E------------------------------------------------------------

e----------------------------------------------------3h5h6---
B---4----2---------------------------------------4h6---------
G-------------3--------0h2--3--5--3------------3-------------
D------------------------------------------------------------
A------------------------------------------------------------
E------------------------------------------------------------

e---9--------8h9h11--------9h11h13--------11h13h14-----------
B------------------------------------------------------------
G------------------------------------------------------------
D------------------------------------------------------------
A------------------------------------------------------------
E------------------------------------------------------------

h - hammer on
Login or Register to remove this ad.

4 comments on With Mila's Divine Protection

Hm...

5

Very Nice..

nice tab. I was looking for

5

nice tab. I was looking for this one for a long time.

Missing notes :(

5

Awesome ! This is a really good tab!
In this row of 11th fret B string notes and 13th fret e string notes are notes missing I am a guitar beginner, but I think there are really some notes missing... I would be really happy if you could find out which notes are mising :D
However, thanks for this tab!

Samurai-Link

Missing notes :)

At 0:08 with the 4h6
Play 3x

e-------------------------------------
B-------------------------------------
G-------------------------------------
D-------------------------------------
A---1--------2--------1--------2------
E-------------------------------------

This is 0:57

e-------13-16--14------18--------18---
B---14-------------16-----------------
G-------------------------------------
D-------------------------------------
A-------------------------------------
E-------------------------------------

I guess I didn't want to make a second guitar just for those few background notes when I made the tab. Hope this is okay.