Ads

Stage Builder (Super Smash Bros. Brawl) Guitar Tab

Submitted: Aug 24, 2008 by NickLip

5
Average: 5 (5 votes)
Download | Listen
Game: Super Smash Bros. Brawl
Composer(s): Various Composers
Style: Transcription
Series: Super Smash Bros.

AutoScroll: Slow | Medium | Fast
Stage Builder
Super Smash Bros. Brawl
Composed by: Unknown
Tabbed by Nick Lipscomb ([email protected])
23/08/08

00:06
e--------------------------------------------------------
B-9-9-10-9-7----12-12-14-12--10-9-10--7-9-10--9-7------9-
G------------9------------------------------------11-9---
D--------------------------------------------------------
A--------------------------------------------------------
E--------------------------------------------------------

e-------------------------------------------------------
B-9-9-10-9-7----12-12-14-12-12/10-9-10--7-9-10-10/9-7---
G------------9-----------------------------------------
D-------------------------------------------------------
A-------------------------------------------------------
E-------------------------------------------------------

e-------------------------------8-7-----------
B-------10-9---------------8-10-----10-8-11-8-
G-9~-11------11-9-12-9--11--------------------
D---------------------------------------------
A---------------------------------------------
E---------------------------------------------

e-8-7~--8-7~--8-10~--13--15-
B---------------------------
G---------------------------
D---------------------------
A---------------------------
E---------------------------

00:53
e-----------
B-----------
G-5~---7~---
D-5~---7~---
A-3~---5~---
E-----------

REPEAT ALL
Login or Register to remove this ad.

2 comments on Stage Builder

thats is sweet! :)

5

thats is sweet! :)

Good job !

5

Good job !