Ads

Route 209 (Super Smash Bros. Brawl) Guitar Tab

Submitted: Jan 18, 2009 by hslesperance (Last updated: Mar 30, 2014)

4.666665
Average: 4.7 (3 votes)
Download | Listen
Game: Super Smash Bros. Brawl
Composer(s): Various Composers
Style: Transcription
Series: Super Smash Bros.

AutoScroll: Slow | Medium | Fast
Route 209
Super Smash Bros. Brawl
Composed by Hitomi Sato
Arranged by Shogo Sakai
Tabbed by hselesperance
10/24/08

Standard Tuning

e-------------------0--5----0----------0--5----0---
B-------------2--3---------------2--3--------------
G---2----------------------------------------------
D--------2-----------------------------------------
A--------------------------------------------------
E--------------------------------------------------

e----9--10--12-------------------------------------
B----------------10---------12--13--12--10---------
G----------------------9---------------------------
D--------------------------------------------------
A--------------------------------------------------
E--------------------------------------------------

e--------------0--2--0-----------------------------
B----------2-3---------3-2-0-----------0----3--2---
G---2------------------------2-----2---------------
D-------2-----------------------2------------------
A--------------------------------------------------
E--------------------------------------------------

e------------------0--2--0-------------------------
B------0-------2-3---------3-2-0----------0----2---
G---2-----2----------------------2-----2-----------
D------------2----------------------2--------------
A--------------------------------------------------
E--------------------------------------------------

e--------------------------------------------------
B---0----------------------------------------------
G------2--1--2----1---1--2----1---1--2-------------
D-------------------4-----------4-------------2----
A--------------------------------------------------
E--------------------------------------------------

e--------------------------------------------------
B-----------------------------1-------1--3----1----
G---2--1--2-----2--1----2--4-------4---------------
D------------2-------------------------------------
A--------------------------------------------------
E--------------------------------------------------

e------0-------------------------------------------
B---3----------------------------1---0---0---------
G-----------------------2-----2----------------2---
D--------------------------2-----------------------
A--------------------------------------------------
E--------------------------------------------------

e-----------------0-2--0---------------------------
B-------------2-3---------3-2-0----------3-2-------
G---2----2----------------------2----2--------2----
D-----2---------------------------2----------------
A--------------------------------------------------
E--------------------------------------------------

e-------------------------------------0-0----------
B--------------------2-3-2-0------2-3--------------
G-------2-4-2-----2----------2-------------2-------
D---2-2--------2---------------2-------------------
A--------------------------------------------------
E--------------------------------------------------

e---2-0--------------------------------------------
B-------2--------3-2---0---------------------------
G---------2----------2----2------------------------
D------------2-------------------------------------
A--------------------------------------------------
E--------------------------------------------------
Login or Register to remove this ad.

1 comment on Route 209

I love this song. Thanks for

4

I love this song.
Thanks for the tab :D