Login or Register to remove this ad.

Obstacle Course (Super Smash Bros. Brawl) Guitar Tab

Submitted: Aug 27, 2008 by hslesperance (Last updated: Feb 15, 2015)

5
Average: 5 (2 votes)
Download | Listen
Game: Super Smash Bros. Brawl
Composer(s): Various Composers
Style: Transcription, Trill
Series: Super Smash Bros.

AutoScroll: Slow | Medium | Fast
Obstacle Course
Super Smash Bros. Brawl
Composed by Koji Kondo
Arranged by Shota Kageyama
Tabbed by hslesperance
8/23/08

Standard Tuning 

e-------------------------------------5--3----------------------------------------
B---3-1---3--1----3-1---3--1----3-1-3------3-1--1---------------------------------
G-------2------2------2------2----------------------------------------------------
D---------------------------------------------------------------------------------
A---------------------------------------------------------------------------------
E---------------------------------------------------------------------------------

e---------------1--1----5--6--5------------5--5-----5-----5-------8--5------------
B---------1--3-------------------6---------------8-----8-------8---------8--5-----
G------2----------------------------7--5--------------------------------------7---
D---3-----------------------------------------------------------------------------
A---------------------------------------------------------------------------------
E---------------------------------------------------------------------------------

e-----------------1--1----5--6--5-----10--5----5--5-----5--8--5-------5----------
B---1-------1--3-------------------7-------------------------------------6-------
G--------2-------------------------------------------7-------------5-------------
D-----3--------------------------------------------------------------------------
A--------------------------------------------------------------------------------
E--------------------------------------------------------------------------------

e---------------1-1-1----5--6--5------------5--5-----5-----5-------8--5-----------
B---------1--3--------------------6---------------8-----8-------8---------8--5----
G------2----------------------------7--5---------------------------------------7--
D---3-----------------------------------------------------------------------------
A---------------------------------------------------------------------------------
E---------------------------------------------------------------------------------

e-----------------1--1-----5--6--5-----10--5----5--5-----5--8--5-------5----------
B---1-------1--3--------------------7-------------------------------------6-------
G--------2--------------------------------------------7-------------5-------------
D-----3---------------------------------------------------------------------------
A---------------------------------------------------------------------------------
E---------------------------------------------------------------------------------

e---10-8--10-8--10-8--10-8----8-6--8-6--8-6----8-6--8-6--8-6--8-6--8-6---6-5------
B---------------------------------------------------------------------------------
G---------------------------------------------------------------------------------
D---------------------------------------------------------------------------------
A---------------------------------------------------------------------------------
E---------------------------------------------------------------------------------

e---6-5--6-5----10-8--10-8--10-8--10-8--10-8----8-6--8-6--8-6--8-6----8--8--8-----
B---------------------------------------------------------------------------------
G---------------------------------------------------------------------------------
D---------------------------------------------------------------------------------
A---------------------------------------------------------------------------------
E---------------------------------------------------------------------------------

e---6--6--6---5--5--5-------------------------------------------------------------
B----------------------8----------------------------------------------------------
G-------------------------5-------------------------------------------------------
D---------------------------------------------------------------------------------
A---------------------------------------------------------------------------------
E---------------------------------------------------------------------------------

e-----------------1--1-----5--6--5-----10--5----5--5-----5--8--5-------5----------
B---1-------1--3--------------------7-------------------------------------6-------
G--------2--------------------------------------------7-------------5-------------
D-----3---------------------------------------------------------------------------
A---------------------------------------------------------------------------------
E---------------------------------------------------------------------------------
                    tr                                     tr
e----------10--9--10-(9)--------------------------10--9--10-(9)---------15h17-----
B---8--10----------------10--8\------------8--10-----------------10--8------------
G---------------------------------------------------------------------------------
D---------------------------------------------------------------------------------
A---------------------------------------------------------------------------------
E---------------------------------------------------------------------------------

p - pull off
h - hammer on
\ - slide down
tr - trill

Here are some lyrics I found on the comments of a youtube video.

If I was a Yoshi,
So happy and carefree,
I'd while away the hours,
Under my own fruit tree,
Oh if I was a Yoshi,
As yoshi as can be,
I'd play and eat and sleep all the day!
Shyguys, Koopas, Dayzees, I eat with my own tongue!
Collecting coins and stars
Has never been so fun!
I hop over the moon, and play beneath the sun!
But if I trip and fall, I'm done!
Login or Register to remove this ad.