Login or Register to remove this ad.

Stage Theme (Nazo no Murasame Jō) Guitar Tab

Submitted: Oct 12, 2008 by hslesperance (Last updated: Mar 30, 2014)

5
Average: 5 (1 vote)
Download | Listen
Game: Nazo no Murasame Jō
Composer(s): Koji Kondo
Style: Transcription

AutoScroll: Slow | Medium | Fast
Stage Theme
Nazo no Murasame Jō
Composed by Koji Kondo
Tabbed by hslesperance
10/12/08

Standard Tuning

e---5-5-5-5-5-5-5---5-5-5-5-5-5-5-----
B-------------------------------------
G-----------------2---------------2---
D-------------------------------------
A-------------------------------------
E-------------------------------------

e---5-5-5---5-5-5---5---5---5---5-----
B-------------------------------------
G---------2-------2---2---2---2-------
D-------------------------------------
A-------------------------------------
E-------------------------------------

e-----------0--7--5--5-5-5-5--7--5----
B---0----3----------------------------
G-------------------------------------
D-------------------------------------
A-------------------------------------
E-------------------------------------

e---3--0-----3----3--3--3-3--3--0-----
B---------3------------------------3--
G-------------------------------------
D-------------------------------------
A-------------------------------------
E-------------------------------------

e---0----0--0-0--0--0--0--------------
B-------------------------------------
G-------------------------------------
D-------------------------------------
A-------------------------------------
E-------------------------------------

e-----------0--7--5--5-5-5-5--7--5----
B---0----3----------------------------
G-------------------------------------
D-------------------------------------
A-------------------------------------
E-------------------------------------

e---3--0-----3----3--3--3-3--3--0-----
B---------3------------------------3--
G-------------------------------------
D-------------------------------------
A-------------------------------------
E-------------------------------------

e---0----0--0-0--0--0--0--------------
B-------------------------------------
G-------------------------------------
D-------------------------------------
A-------------------------------------
E-------------------------------------

e-------------------------------------
B-------------------------------0-----
G------------------0--0--0----2---2---
D---0-2-0----0--2--2--2--2----------2-
A---------2---------------------------
E-------------------------------------

e-------------------------------------
B---------0---------------------------
G---0--2--0----------------0------0---
D--------------0--2-------------2-----
A-----------2-------------------------
E-------------------------------------

e-------------------------------------
B-------------------------------------
G--------------0----------------------
D---2-0----------0--------------------
A------------------2-------0----2-0---
E-------------------------------------

e-------------------------------------
B-------------------------------------
G-------------------------------------
D-------------------------------------
A-----------0--2----------------------
E---3--0--3---------------------------

e---5h7p5----3--5----3h5p3------------
B---------5-----------------3--5--5---
G-------------------------------------
D-------------------------------------
A-------------------------------------
E-------------------------------------

e---5h7p5----3--5--------7--7--7--7---
B---------5---------------------------
G-------------------------------------
D-------------------------------------
A-------------------------------------
E-------------------------------------

e-------------------------------------
B-------------------------------------
G------------------0------0-----------
D------0--2-------------2---2-0-------
A---2---------------------------------
E-------------------------------------

e-------------------------------------
B-------------------------------------
G---0---------------------------------
D-----0-------------------------------
A-------2-------0----2-0---------0--2-
E------------------------3--0--3------

e---5h7p5----3--5----3h5p3------------
B---------5-----------------3--5--5---
G-------------------------------------
D-------------------------------------
A-------------------------------------
E-------------------------------------

e---5h7p5----3--5--------7--7--7--7---
B---------5---------------------------
G-------------------------------------
D-------------------------------------
A-------------------------------------
E-------------------------------------

h - hammer on
Login or Register to remove this ad.