Ads

Main Theme (Super Smash Bros. Brawl) Bass Tab

Submitted: Nov 08, 2008 by VirusTsunami (Last updated: Dec 24, 2009)

4
Average: 4 (1 vote)
Download | Listen
Game: Super Smash Bros. Brawl
Composer(s): Various Composers
Style: Transcription
Series: Super Smash Bros.

AutoScroll: Slow | Medium | Fast
"Super Smash Brothers Brawl Main Theme"

Lyrics Supervisor: Masahiro Sakurai
Lyric Translation:  Taro Yamashita
Composition Supervisor: Nobuo Uematsu
Arrangement Supervisor: Shogo Sakai
Conductor: Taizo Takemoto
Soprano:Oriko Takahashi
Tenor: Ken Nishikiori
This song is copyrighted to HAL Laboratories and Nintendo Inc.
--------------------------------------------------------------------

Bass Tab
Standard Tuning.
Tabber:  Virus Tsunami
Date: 08/02/'08

------------------------------------------------------

Intro: 

E |0-------------------| 
A|---------------------| 
D|---------------------|  
G|---4444--4-4-----| 



Part 1
E|-----------------| 
A|-----------------| 
D|----7-6--66--66--|  
G|6-4--------------| 




E|-----------------------| 
A|----------------------| 
D|-4-6-7---6-66-6--|  x2
G|-------4-------------| 




E|-----------------------| 
A|------------4---------| 
D|-1-2-4--2-1----6--| 
G|----------------------|




E|----------------------| 
A|---------------------| 
D|----7-6--66--66--|  
G|6-4-----------------| 





E|-----------------------| 
A|----------------------| 
D|-4-6-7---6-66-6--|  x2
G|-------4-------------| 



E|----------------------| 
A|------------4--------| 
D|-1-2-4--2-1-------| 
G|----------------------|




Part 2
E|------------------------------------------| 
A|------------------------------------------| 
D|------------------------------------------| 
G|-8-8-9--11-11-9-8-----6-8--6-6----|




E|------------------------------------------| 
A|-------------------4----------------------| 
D|-1-1-2--4-4-2-1------1-2-4-6-------| 
G|------------------------------------------|



E|---------------------------------------------------------| 
A|---------------------------------------------------------| 
D|-4-4-6-7-7-6-4-------------------------------------------| 
G|-----------------1-1-2-4-4-2-1----3-4-6-6-4-3-1----8--8--|




E|-------------| 
A|-------------| 
D|-------------| 
G|---1---6-----|



E|-----------------------------| 
A|-----------------------------| 
D|-----------------------------| 
G|-9--9-8-9--8-6-----6---------|



Part 3
E|----------------------------------------| 
A|----------------------------------------| 
D|-----------------------------4-2--------| 
G|-6-6-8-9-8-6-4-2-1---1-2-1--------------|


E|------------------------------------------| 
A|------------------------------------------| 
D|----------------------4---------4-4-2-----| 
G|-4---4-6-4---2-1-2------1-2---1-------1---|


E|----------------------------------------------------| 
A|----------------------------------------------------| 
D|------------4-2----------------------4---------4-2--| 
G|-1--1-2-1-------4--4-6-4----2-1-2------1-2---1------|


Login or Register to remove this ad.

1 comment on Main Theme

I like It

4

I like It