Ads

Bob-omb Battlefield (Super Smash Bros. Brawl) Guitar Tab

Submitted: Jul 06, 2008 by yoshistrings (Last updated: Jul 07, 2008)

4.833335
Average: 4.8 (6 votes)
Download | Listen
Game: Super Smash Bros. Brawl
Composer(s): Various Composers
Style: Transcription
Series: Super Smash Bros.

AutoScroll: Slow | Medium | Fast
bob-omb battlefield guitar tab
tabbed by yoshistrings

|-------0--------------------|
|-3-0-3---3------------------|
|-------------0-1-2-2-2-2----|
|-----------4----------------|
|----------------------------|
|----------------------------|


|---------------------------------------------------------------------|
|---------------------------------------------------------------------|
|-----------2-4-2---------------------------------------2-0-2-4-2-----|
|-2-3-4-3-4-------0-----------0-2-0-------------------------------2---|
|-------------------0-1-2-1-2-------2-2-0-----0-0-----0---------------|
|-----------------------------------------2-3-----2-3-----------------|


|-----------------------------------------------------------------|
|-----------------3-----0---0-3-5-3-0-0---------------------------|
|-----------2-4-2---2-3---3-------------2-1-2----2-1-2---0--------|
|-2-3-4-3-4------------------------------------------------4-0----|
|---------------------------------------------0--------0----------|
|-----------------------------------------------------------------|


|------------------------------------------------|
|------------------------------------------------|
|---0-1-2-4-3-2-1-0-2-----0-1-2-4-3-2-1-0--------|
|-4-------------------4-4-----------------4-0----|
|------------------------------------------------|
|------------------------------------------------|


|------------------------------------------------|
|------------------------------------------------|
|-4-4-3-3-2-2-1-1-0-2---4-4-3-3-2-2-1-1-0--------|
|---------------------4-------------------4-0----|
|------------------------------------------------|
|------------------------------------------------|


|--------------------------------------------------------|
|--------------------------------------------------------|
|--------------------------------------------------------|
|-0------0--------------------0------0-------------------|
|---0-3----0-3--2------2--------0-3----0-3--2-2-2-2-1----|
|-----------------0-3----0-3-----------------------------|


|--------------------------------------------------------|
|--------------------------------------------------------|
|--------------------------------------------------------|
|-0------0--------------------0------0------------0-2----|
|---0-3----0-3--2------2--------0-3----0-3--2-2-2--------|
|-----------------0-3----0-3-----------------------------|


Login or Register to remove this ad.

4 comments on Bob-omb Battlefield

How ironic, I was listening

5

How ironic, I was listening to this song today and really wanted to figure it out, thanks!

-Blur

It's not ironic, it's coincidental.

It's not ironic, it's coincidental.

hey archard, if you see this, could you put this tab under mario

hey archard, if you see this, could you put this tab under mario 64 instead? thnx.

nice

nice