Mii Channel (Nintendo Wii) Guitar Tab

Submitted: Jul 28, 2018 by FocusShallNotFail (Last updated: Jul 30, 2018)

4.88889
Average: 4.9 (9 votes)
Download | No audio :(
Game: Nintendo Wii
Style: Arrangement, Fingerstyle

Click here for a video example.

AutoScroll: Slow | Medium | Fast
Title: Mii Channel
Artist: 
Arrangement: Eduardo Barelli


Track 1: Tab by Eduardo Barelli

E|---------5---9-------5-----------|---------------------------------|---------5---9-------5-----------|
B|-7-------7---10------7-------7---|---------------------------------|-----7---7---10------7-------7---|
G|-7---------------------------7---|-7---7---7-------------------6---|-7---7-----------------------7---|
D|---------------------------------|-6---6---6-----------------------|---------------------------------|
A|---------------------------------|-----------------------------8---|-9-------------------------------|
E|-7-------------------------------|---------------------------------|-7-------------------------------|


E|-12-------11--10--------------|---------9-----------9-----------|-----9---------------------------|
B|-14-------13--12--------------|-9-----------7---------------9---|-------------9---7-------5-------|
G|------------------------------|---------9-----------------------|-----9-------------------6-------|
D|------------------------------|-----------------------------7---|---------------------------------|
A|-11-------10--9---------------|-0-------------------7-----------|-------------11--9---------------|
E|------------------------------|---------------------------------|---------------------------------|


E|---------------------------------|---------------------------------|---------5---9-------5-----------|
B|---------------------------------|---------------------------------|-7-------7---10------7-------7---|
G|-9---9---9---------------9---9---|-9---------------8-------7-------|-7---------------------------7---|
D|-10--10--10--------------10--10--|-10--------------9-------8-------|-7-------------------------------|
A|-9---9---9---------------9---9---|-9-------------------------------|---------------------------------|
E|-10--10--10--------------10--10--|-10--------------9-------8-------|-7-------------------------------|


E|-----------------12--12--12------|---------5---9-------5-----------|-9-----7---------------|
B|-5---5---5-----------------------|-----7---7---10------7-------7---|-9-----7---------------|
G|-7---7---7-------13--13--13------|-----7-----------------------7---|-9-----7---------------|
D|-6---6---6-----------------------|---------------------------------|-----------------------|
A|-7---7---7-----------------------|---------------------------------|-----------------------|
E|---------------------------------|-7-------------------------------|-----------------------|


E|-7----------------7-----------|-5----------------------------|-----------------------------6---|
B|-----8----------------8-------|-----7------------6---3-------|-5---5---5-----------------------|
G|-7-------7---6----6-------6---|-5-------5---4----4-------4---|-6---6---6-------------------6---|
D|---------9--------7-----------|---------7--------5-----------|-7---7---7-------------------5---|
A|-7----------------------------|-5----------------------------|---------------------------------|
E|-------------5----------------|-------------3----------------|-7---7---7-----------------------|


E|-7---9---10--14--17--------------|---------------------------|------2-----------2--------|
B|-----8---9---12--14--------------|---------------------------|------3-----------3--------|
G|-7---------------12--------------|-----------------2----3----|-4--------3---4------------|
D|-6---8---9---12------------------|---------------------------|-2-------------------------|
A|---------------------------------|---------------------------|----------2------------2---|
E|---------------------------------|---------------------------|---------------------------|


E|-----0---------------2--------|------2-----------2-----------|-----2---------------------|
B|-----2--------------------2---|------3-----------3-----------|-----3---------------------|
G|---------2---3---4------------|-4--------3---4---------------|-----------------4----5----|
D|-------------2----------------|-0----------------------------|-0-------------------------|
A|-0----------------------------|----------0---------------0---|-------------0-------------|
E|------------------------------|------------------------------|---------------------------|


E|------4-----------4-----------|-----2---------------4--------|------------------------------|
B|------7-----------6-----------|-----2---2----------------4---|-2--------4---0---------------|
G|-6--------5---6---------------|-------------5---6------------|------2-----------------------|
D|------------------------------|------------------------------|------4-----------4-----------|
A|----------4---------------4---|-------------4----------------|----------2-------------------|
E|-4----------------------------|-2----------------------------|-2------------------------2---|


E|--------------4---4---4-------|
B|-----0--------2---2---2-------|
G|-----1--------4---4---4-------|
D|------------------------------|
A|--------------4---4---4-------|
E|-0----------------------------|


Title: Mii Channel
Artist: 
Album: Arrangement: Eduardo Barelli
Author: Arrangement: Eduardo Barelli


Track 1: Tab by Eduardo Barelli

E|---------5---9-------5-----------|---------------------------------|---------5---9-------5-----------|
B|-7-------7---10------7-------7---|---------------------------------|-----7---7---10------7-------7---|
G|-7---------------------------7---|-7---7---7-------------------6---|-7---7-----------------------7---|
D|---------------------------------|-6---6---6-----------------------|---------------------------------|
A|---------------------------------|-----------------------------8---|-9-------------------------------|
E|-7-------------------------------|---------------------------------|-7-------------------------------|


E|-12-------11--10--------------|---------9-----------9-----------|-----9---------------------------|
B|-14-------13--12--------------|-9-----------7---------------9---|-------------9---7-------5-------|
G|------------------------------|---------9-----------------------|-----9-------------------6-------|
D|------------------------------|-----------------------------7---|---------------------------------|
A|-11-------10--9---------------|-0-------------------7-----------|-------------11--9---------------|
E|------------------------------|---------------------------------|---------------------------------|


E|---------------------------------|---------------------------------|---------5---9-------5-----------|
B|---------------------------------|---------------------------------|-7-------7---10------7-------7---|
G|-9---9---9---------------9---9---|-9---------------8-------7-------|-7---------------------------7---|
D|-10--10--10--------------10--10--|-10--------------9-------8-------|-7-------------------------------|
A|-9---9---9---------------9---9---|-9-------------------------------|---------------------------------|
E|-10--10--10--------------10--10--|-10--------------9-------8-------|-7-------------------------------|


E|-----------------12--12--12------|---------5---9-------5-----------|-9-----7---------------|
B|-5---5---5-----------------------|-----7---7---10------7-------7---|-9-----7---------------|
G|-7---7---7-------13--13--13------|-----7-----------------------7---|-9-----7---------------|
D|-6---6---6-----------------------|---------------------------------|-----------------------|
A|-7---7---7-----------------------|---------------------------------|-----------------------|
E|---------------------------------|-7-------------------------------|-----------------------|


E|-7----------------7-----------|-5----------------------------|-----------------------------6---|
B|-----8----------------8-------|-----7------------6---3-------|-5---5---5-----------------------|
G|-7-------7---6----6-------6---|-5-------5---4----4-------4---|-6---6---6-------------------6---|
D|---------9--------7-----------|---------7--------5-----------|-7---7---7-------------------5---|
A|-7----------------------------|-5----------------------------|---------------------------------|
E|-------------5----------------|-------------3----------------|-7---7---7-----------------------|


E|-7---9---10--14--17--------------|---------------------------|------2-----------2--------|
B|-----8---9---12--14--------------|---------------------------|------3-----------3--------|
G|-7---------------12--------------|-----------------2----3----|-4--------3---4------------|
D|-6---8---9---12------------------|---------------------------|-2-------------------------|
A|---------------------------------|---------------------------|----------2------------2---|
E|---------------------------------|---------------------------|---------------------------|


E|-----0---------------2--------|------2-----------2-----------|-----2---------------------|
B|-----2--------------------2---|------3-----------3-----------|-----3---------------------|
G|---------2---3---4------------|-4--------3---4---------------|-----------------4----5----|
D|-------------2----------------|-0----------------------------|-0-------------------------|
A|-0----------------------------|----------0---------------0---|-------------0-------------|
E|------------------------------|------------------------------|---------------------------|


E|------4-----------4-----------|-----2---------------4--------|------------------------------|
B|------7-----------6-----------|-----2---2----------------4---|-2--------4---0---------------|
G|-6--------5---6---------------|-------------5---6------------|------2-----------------------|
D|------------------------------|------------------------------|------4-----------4-----------|
A|----------4---------------4---|-------------4----------------|----------2-------------------|
E|-4----------------------------|-2----------------------------|-2------------------------2---|


E|--------------4---4---4-------|
B|-----0--------2---2---2-------|
G|-----1--------4---4---4-------|
D|------------------------------|
A|--------------4---4---4-------|
E|-0----------------------------|


Login or Register to remove this ad.

2 comments on Mii Channel

Wow! This transcription is

5

Wow! This transcription is pretty much perfect. I never realized before just how good this song sounds on guitar once you get a good flow going.

Don't usually sign in

5

but i had to in order to thank you for making this. Almost spot on and the best version I have found for this song