Ads

Main Menu (Metroid Prime 3: Corruption) Guitar Tab

Submitted: Dec 10, 2008 by Morph_man (Last updated: Dec 10, 2008)

3
Average: 3 (2 votes)
Download | Listen
Game: Metroid Prime 3: Corruption
Composer(s): Kenji Yamamoto, Minako Hamano, Masaru Tajima
Style: Transcription
Series: Metroid

AutoScroll: Slow | Medium | Fast
Metroid Prime 3
Main Menu

]=Slide

e|-------------------|--------------|
B|--12-10-8-10-12-12-|----7-8--10]8-|
G|-------------------|--9----------9|
D|-------------------|--------------|
A|-------------------|--------------|
E|-------------------|--------------|

|----------10---12|-------------------------------|
|-10--10----------|--------7--8---10--8--7--------|
|---11------------|---9--------------------9--7--9|
|-----------------|-------------------------------|
|-----------------|-------------------------------|
|-----------------|-------------------------------|
Login or Register to remove this ad.

2 comments on Main Menu

Great

5

Excelent tab Sr.

barely anything

1

not much at all