Ads

Zora's Domain (Legend of Zelda: Twilight Princess) Guitar Tab

Submitted: Aug 29, 2008 by NickLip (Last updated: Oct 31, 2009)

5
Average: 5 (4 votes)
Download | Listen
Game: Legend of Zelda: Twilight Princess
Composer(s): Koji Kondo, Asuka Ohta, Toru Minegishi
Style: Transcription
Series: Legend of Zelda

AutoScroll: Slow | Medium | Fast
Tabbed by Nick Lipscomb ([email protected])
18/08/08 - 28/08/08

This beginning part is 100% accurate. Fact.

Just listen to the song to get the timing right:
e-7-------------------------------------------
B---8---8-------------------------------------
G-----7---7-----------------------------------
D-----------9---------------------------------
A-------------10-5----------------------------
E---------------------------------------------

e-5-----------------------------------------
B---6---6-----------------------------------
G-----5---5---------------------------------
D-----------7-------------------------------
A-------------8-3---------------------------
E-------------------------------------------

e-3------------------------------2~---------
B---4---4------------------------3~---------
G-----3---3----------------------2~---------
D-----------5-------------5~-----4~---------
A-------------6-1----------------5~---------
E-------------------------------------------


e----------------------------------------
B---------10-7-----------------10-7------
G-------7------7-------7-----7------7----
D---7-9----------9--------7-9---------9--
A----------------------------------------
E----------------------------------------

e---------------------------------------------------
B-----10--------------------------------7h8p7-------
G---7----7-9~----------7------9---------------9-11--
D-9-------------7-9-10---9-10----9-10-12------------
A---------------------------------------------------
E---------------------------------------------------
					
e------------------------------------------
B------------------12----------10----------
G-12-11-12-7---7------11-11-12----9-7-9----
D------------9-----------------------------
A------------------------------------------
E------------------------------------------

e------------------------------------------
B-13-12------------------------------------
G-------12----------9----12-11-9-7---------
D----------12----10---10-------------------
A------------------------------------------
E------------------------------------------

e---------------------------------------------7-
B-------7------7-------7-------7-----7----------
G-----7--------------7-------7--------------7---
D-7-9------7-9---7-9-----7-9-----7-9----7-9-----
A-----------------------------------------------
E-----------------------------------------------
					
e-10-7-------------------------
B------8-5-8-5---7---7-5h7p5---
G--------------5---9---------7-
D------------------------------
A------------------------------
E------------------------------

e-----------------------7-------7-------------------
B-----7-10--7-------------7-------7---10------------
G---7---------7-------7-------------7----7--------7-
D-9-------------7---9-------7--------------7----7---
A---------------------------------------------5-----
E---------------------------------------------------

                                                   ---|
e---------------------------------------------------  |
B-10-----7-10----10-----7-10---9-------9----------9-  |
G------7-------7------7------------6-9---9----6-9---  |
D----7--------------7------------6----------6-------  |
A---------------------------------------------------  |
E---------------------------------------------------  |
                                                      | x2
e---------------------------------------------------  |
B-8-----5-8---------5-8---7-----5-7---5-7-----5-7---  |
G-----5---------5-------------5-----5-------5-------  |
D---5-------5-----5---------5-------------5---------  |
A---------------------------------------------------  |
E---------------------------------------------------  |
                                                   ---|


For this next part only 2 notes are used at a time, however
the order that the notes are played in are different for each part. 
If you listen to the song it makes sense. 

I've added time signatures to avoid confusion.
									---|
01:22 - 01:25	    01:26 - 01:28     01:28 - 01:30    			   |
   e-----		-----		  -----	                           |	
   B-----		-----	          -----  	                   |
   G-7---		-6---		  -5---	                           |
   D----- 		----- 		  -----	                           |	
   A---5-		---4-		  ---3- 	                   |
   E-----		-----		  -----	                           |
									   | x 2
Then;							 		   |
									   |
e---------------------------				 		   |
B---------------------------				      	           |
G------9-11--9-11------9-11-						   |
D-9-10------------9-10------						   |
A---------------------------					 	   |
E---------------------------				                ---|

END - REPEAT SONG

Login or Register to remove this ad.

3 comments on Zora's Domain

awesome. But what happened

5

awesome. But what happened at the bottom? Does it look like it got hit by a tornado, or izzat just me?

lol. sorry about that, yoshi

lol. sorry about that, yoshi :)

Great Tab!

5

Yeah great tab it's really not as hard to play as it looks on first glimpse, good work! BUT.. I believe it's the Zora's Domain from Zelda: Ocarina of Time not from Twilight Princess? or am I horribly wrong?