Login or Register to remove this ad.

Renado's House (Legend of Zelda: Twilight Princess) Guitar Tab

Submitted: Sep 15, 2008 by hslesperance (Last updated: Jul 26, 2011)

4.5
Average: 4.5 (2 votes)
Download | Listen
Game: Legend of Zelda: Twilight Princess
Composer(s): Koji Kondo, Asuka Ohta, Toru Minegishi
Style: 2 or more instruments, Transcription
Series: Legend of Zelda

AutoScroll: Slow | Medium | Fast
The Legend of Zelda: Twilight Princess
Renado's House
Composed by Koji Kondo
Tabbed by hslesperance
9/9/08

Standard Tuning

Guitar 1

e--------5-7---------------------------5-7-5----5----------------
B---9--------9----9----7--5--9----9-------------------9-7-9------
G----------------------------------------------------------------
D----------------------------------------------------------------
A----------------------------------------------------------------
E----------------------------------------------------------------

e---11----9-11---------------------------------------------------
B--------------9--------7-9---------------7----------------------
G---------------------------6----6----8-9------------------------
D----------------------------------------------------------------
A----------------------------------------------------------------
E----------------------------------------------------------------

Guitar 2

e----------------------------------------------------------------
B---0-------------1---------------2-------------1----------------
G----------------------------------------------------------------
D----------------------------------------------------------------
A----------------------------------------------------------------
E----------------------------------------------------------------

e----------------------------------------------------------------
B---0-----------------------------------------------0------------
G-------------------3------------2-------------3-----------------
D----------------------------------------------------------------
A----------------------------------------------------------------
E----------------------------------------------------------------
Login or Register to remove this ad.

1 comment on Renado's House

Very Nice

4

A very well tabbed piece :)