Login or Register to remove this ad.

Enter Ilia (Legend of Zelda: Twilight Princess) Guitar Tab

Submitted: Oct 03, 2008 by hslesperance (Last updated: Jul 15, 2013)

5
Average: 5 (3 votes)
Download | Listen
Game: Legend of Zelda: Twilight Princess
Composer(s): Koji Kondo, Asuka Ohta, Toru Minegishi
Style: 2 or more instruments, Transcription
Series: Legend of Zelda

AutoScroll: Slow | Medium | Fast
The Legend of Zelda: Twilight Princess
Ilia Enters
Composed by Asuka Ohta, Koji Kondo, Toru Minegishi
Tabbed by hslesperance
9/29/08


Guitar 1 - Standard Tuning
Guitar 2 - Drop D Tuning


Guitar 1

e---8--7------------------------------8--7-----------1--0--3/5--3----
B---------8------------1--0-----------------8------------------------
G----------------------------0---------------------------------------
D--------------------------------------------------------------------
A--------------------------------------------------------------------
E--------------------------------------------------------------------

e---8--7------------------------------------------15-----------------
B---------8------------1--0---------------12--13---------------------
G----------------------------0---------------------------------------
D--------------------------------------------------------------------
A--------------------------------------------------------------------
E--------------------------------------------------------------------

Guitar 2

e---------1--5-1---5-1------0-3-----------------1-----1----------0---
B------1---------1--------1------------------1----1-----1------1-----
G-----------------------------------------2---------2--------0-------
D---3-------------------2--------------0-----------------------------
A----------------------------------------------------------3---------
D--------------------------------------------------------------------

e------------------------------------------------------------1-------
B------------1--------1--------------1--------1-----------1----------
G---------2-----2--------2--------0-----0--------0-----2-------------
D------3-----------3-----------2-----------2-------------------------
A--------------------------------------------------------------------
D---3-----------------------2-----------------------0----------------

e------------1-----------0--------0----------------------------------
B---------1-----------1-----1--------1-----------1--------1----------
G------2-----------0-----------0--------------2-----2--------2-------
D------------------------------------------3-----------3-------------
A---------------3----------------------------------------------------
D---5-----------------------------------3----------------------------

e------------------------------------------------------------0-------
B------------1-----------1-----------1-----------3--------1----------
G---------0-----0-----0-----------2--------0--3--------0-------------
D------2-----------2--------0--3-------------------------------------
A---------------------------------------1-----------3----------------
D---2----------------------------------------------------------------

e---------1--5--1-----5--1-----------3--------3--------------1-------
B------1-----------1--------------1-----1--------1--------1----------
G------------------------------0-----------0-----------2-------------
D---3-----------------------2-----------------------0----------------
A--------------------------------------------------------------------
D--------------------------------------------------------------------

e------------1-----------0--------0-----------1--5--1-----5--1-------
B---------1-----------1-----1--------1-----1-----------1-------------
G------2-----------0-----------0-------------------------------------
D---------------------------------------3----------------------------
A---------------3----------------------------------------------------
D---5----------------------------------------------------------------

e------------3-----------3-----------------------------------0-------
B---------1-----1-----1--------------1-----------3--------1----------
G------0-----------0--------------2--------0--3--------0-------------
D---2-----------------------0--3-------------------------------------
A---------------------------------------1-----------3----------------
D--------------------------------------------------------------------

/ - slide up
Login or Register to remove this ad.

6 comments on Enter Ilia

good job.

good job.

I love this beginning

This is definitely the all-time and best Zelda song ever. The beginning sounds so good on a acoustic if it is played good
Does guitar 2 have to be played in D tuning? or DADGAD as it is actually placed out

You could play it in D tuning

You could play it in D tuning if you want to. Like this?

D---------3--7-3---7-3------3-5-----------------3-----3----------2---
A------3---------3--------3------------------3------3---3------3-----
G-----------------------------------------2-------2------------------
D---3-------------------2--------------0---------------------2-------
A----------------------------------------------------------3---------
D--------------------------------------------------------------------

D------------------------------------------------------------3-------
A------------3--------3--------------3--------3-----------3----------
G---------2-----2--------2--------0-----0--------0-----2-------------
D------3-----------3-----------2-----------2-------------------------
A--------------------------------------------------------------------
D---3-----------------------2-----------------------0----------------

D------------------------2--------2----------------------------------
A---------------------3-----3--------3-----------3--------3----------
G------------2-----0-----------0--------------2-----2--------2-------
D---------3--------------------------------3-----------3-------------
A------1--------3----------------------------------------------------
D---5-----------------------------------3----------------------------

D------------------------------------------------0-----------2-------
A------------3--------3--------------3--------------------3----------
G---------0-----0--------0--------2--------0--3--------0-------------
D------2-----------2--------0--3-------------------------------------
A---------------------------------------1-----------3----------------
D---2----------------------------------------------------------------

D---------3--7--3-----7--3-----------5--------5--------------3-------
A------3-----------3--------------3-----3--------3--------3----------
G------------------------------0-----------0-----------2-------------
D---3-----------------------2-----------------------0----------------
A--------------------------------------------------------------------
D--------------------------------------------------------------------

D------------3-----------2--------2-----------3--7--3-----7--3-------
A---------3-----------3-----3--------3-----3-----------3-------------
G------2-----------0-----------0-------------------------------------
D---------------------------------------3----------------------------
A---------------3----------------------------------------------------
D---5----------------------------------------------------------------

D------------5-----------5-----------------------0-----------2-------
A---------3-----3-----3--------------3--------------------3----------
G------0-----------0--------------2--------0--3--------0-------------
D---2-----------------------0--3-------------------------------------
A---------------------------------------1-----------3----------------
D--------------------------------------------------------------------

I personally prefer the drop-D tuning. It seems easier to play.

drop D?

whats drop D tuning?

oooooh instead of EADGBE its

oooooh instead of EADGBE its DADGBE

Is all good ;)

5

Thank tabs is perfect