Login or Register to remove this ad.

Fishing Hole (Legend of Zelda: Twilight Princess) Guitar Tab

Submitted: Jan 22, 2009 by hslesperance (Last updated: Dec 30, 2009)

4.5
Average: 4.5 (2 votes)
Download | Listen
Game: Legend of Zelda: Twilight Princess
Composer(s): Koji Kondo, Asuka Ohta, Toru Minegishi
Style: 2 or more instruments, Transcription
Series: Legend of Zelda

AutoScroll: Slow | Medium | Fast
The Legend of Zelda: Twilight Princess
Fishing Hole
Composed by Auska Ohta, Koji Kondo and Toru Minegishi
Tabbed by hslesperance
9/14/08

Standard Tuning

Guitar 1

Rest for two measures

e----------3--2--------------------------------------------------
B---0--------------3----2----0-----2-----------------------------
G-------------------------------2--------------------------------
D----------------------------------------------------------------
A----------------------------------------------------------------
E----------------------------------------------------------------

Rest for one measure

e----------3--2---------0------2--3--5---------------------------
B---0--------------3---------------------------------------------
G----------------------------------------------------------------
D----------------------------------------------------------------
A----------------------------------------------------------------
E----------------------------------------------------------------

Guitar 2

e----------------------------------------------------------------|
B---------0------------------2-----------------------------------|
G-------2------------------4-------------------------------------| 6x
D-----0------------------2---------------------------------------|
A----------------------------------------------------------------|
E---3------------------3-----------------------------------------|

e----------------------------------------------------------------
B---------2------------------1-----------------------------------
G-------4------------------2-------------------------------------
D-----2------------------1---------------------------------------
A----------------------------------------------------------------
E---2------------------1-----------------------------------------

e----------------------------------------------------------------
B-------0-3------------------2-----------------------------------
G-----0--------------------0-------------------------------------
D---2--------------------2---------------------------------------
A----------------------0-----------------------------------------
E----------------------------------------------------------------

e----------------------------------------------------------------
B---------0------------------2-----------------------------------
G-------2------------------4-------------------------------------
D-----0------------------2---------------------------------------
A----------------------------------------------------------------
E---3------------------2-----------------------------------------

e----------------------------------------------------------------
B-------0-3------------------2-----------------------------------
G-----0--------------------2-------------------------------------
D---2--------------------4---------------------------------------
A----------------------5-----------------------------------------
E----------------------------------------------------------------

e----------------------------------------------------------------|
B---------0------------------2-----------------------------------|
G-------2------------------4-------------------------------------| 2x
D-----0------------------2---------------------------------------|
A----------------------------------------------------------------|
E---3------------------3-----------------------------------------|

Guitar 3

e----------------------------------------------------------------|
B---0----------------2----------------0----------------2---------|
G---0----------------2----------------0----------------2---------| 3x
D--------------------2---------------------------------2---------|
A----------------------------------------------------------------|
E----------------------------------------------------------------|

e----------------------------------------------------------------
B---2----------------1----------------0----------------2---------
G---2----------------2----------------0----------------0---------
D---2----------------1----------------2----------------2---------
A----------------------------------------------------------------
E----------------------------------------------------------------

e--------------------2----0--------------------------------------
B---0-2-3-----------------2----------------------3----2----------
G-------4----------------------2--------0-------------2----------
D---------------------------------------2------------------4-----
A----------------------------------------------------------------
E----------------------------------------------------------------

e----------------------------------------------------------------
B---0----------------2----------------0----------------2---------
G---0----------------2----------------0----------------2---------
D--------------------2---------------------------------2---------
A----------------------------------------------------------------
E----------------------------------------------------------------
Login or Register to remove this ad.