Ads

DK Jungle 1 Theme (Donkey Kong Barrel Blast) Guitar Tab

Submitted: Aug 05, 2008 by NickLip (Last updated: Aug 05, 2008)

5
Average: 5 (1 vote)
Download | Listen
Game: Donkey Kong Barrel Blast
Composer(s): Unknown
Style: Transcription
Series: Donkey Kong

AutoScroll: Slow | Medium | Fast
DK Jungle 1 Theme
Donkey Kong Barrel Blast
Composed by: Unknown
Tabbed by Nick Lipscomb ([email protected])
04/08/08

00:06
e-10----------------------------------------
B----12~------------------------------------
G---------12--------------------------------
D----------------12-14-15-14-15-14-15-15-12-
A-------------------------------------------
E-------------------------------------------

e-----------------------10------------------
B--------------------------12~--------------
G-------------------------------12----------
D-10-12--9-10-12----------------------------
A-------------------------------------------
E-------------------------------------------

Then there's this quick little scale (listen to the mp3 to get the timing right):

e-10-12-13-12-8-10-8-7-8-7-5-7-5-3--7-10----
B----------------------------------------8--
G-------------------------------------------
D-------------------------------------------
A-------------------------------------------
E-------------------------------------------

e---------------------------------------------
B---------------------------------------------
G-10-10-9-10-9-10-7-7---10-10-9-10-9-12-14-12-
D---------------------------------------------
A---------------------------------------------
E---------------------------------------------
					
e------------------------------------------
B------------------------------------------
G-10-10-9-10-9-10-7-7----------------------
D------------------------------------------
A------------------------------------------
E------------------------------------------

00:25
Tremelo picked:
e--------------------------------------------
B--------------------------------------------
G-7-7-7-7--9-9-9-9--10-10-10-10--12-12-14-12-
D--------------------------------------------
A--------------------------------------------
E--------------------------------------------

e---------------------------------------------
B---------------------------------------------
G-10-10-9-10-9-10-7-7---10-10-9-10-9-12-14-12-
D---------------------------------------------
A---------------------------------------------
E---------------------------------------------
					
e------------------------------------------
B------------------------------------------
G-10-10-9-10-9-10-7-7---4-7-12-------------
D------------------------------------------
A------------------------------------------
E------------------------------------------

First part starts again:
e-10----------------------------------------
B----12~------------------------------------
G---------12--------------------------------
D----------------12-14-15-14-15-14-15-15-12-
A-------------------------------------------
E-------------------------------------------

e-----------------------10------------------
B--------------------------12~--------------
G-------------------------------12----------
D-10-12--9-10-12----------------------------
A-------------------------------------------
E-------------------------------------------

e-10-12-13-12-8-10-8-7-8-7-5-7-5-3--7-10----
B----------------------------------------8--
G-------------------------------------------
D-------------------------------------------
A-------------------------------------------
E-------------------------------------------

00:46 - JAZZY INSTRUMENTAL

1:08 - REPEAT ALL
Login or Register to remove this ad.