Login or Register to remove this ad.

Larry's Theme (Phoenix Wright: Trials and Tribulations) Guitar Tab

Submitted: Apr 14, 2008 by Strummer (Last updated: Apr 14, 2008)

3
Average: 3 (1 vote)
Download | Listen
Game: Phoenix Wright: Trials and Tribulations
Composer(s): Noriyuki Iwadare
Style: Transcription
Series: Phoenix Wright

AutoScroll: Slow | Medium | Fast
Larry Butz ~ When Something Smells...
Tabbed by: Strummer

e-------10-------------------------
B-12-12----12----10/12-12----10----
G-------------------------12-------
D----------------------------------
A----------------------------------
E----------------------------------

e-------10-------------------------
B-12-12----12----10/12-12-10-------
G----------------------------12-9--
D----------------------------------
A----------------------------------
E----------------------------------

e-------10-------------------------
B-12-12----12----10/12-12----10----
G-------------------------12-------
D----------------------------------
A----------------------------------
E----------------------------------

e-------10-------------------------
B-12-12----12----10/12-12-10-------
G----------------------------12-9--
D----------------------------------
A----------------------------------
E----------------------------------

e----------------------------------
B-------------12-10----------------
G-9-10--------------12-------------
D----------------------------------
A----------------------------------
E----------------------------------

e----------------------------------
B-------------12-10----------------
G-10----------------12-------------
D----------------------------------
A----------------------------------
E----------------------------------

e-------------------------------------------------------------------------
B-------------------------------------------------------------------------
G-10-12-10-12-12-10-12-12-10-12-12-12-10-10-12-12-10-12-12-10-10-10-12-10-
D-------------------------------------------------------------------------
A-------------------------------------------------------------------------
E-------------------------------------------------------------------------

e----------------------------------------------------------------------
B-------------------------------------------10----------------10-------
G-10-12-10-12-12-10-12-12-10-10-12-10-12-10----12-10-10-12-10----10-12-
D----------------------------------------------------------------------
A----------------------------------------------------------------------
E----------------------------------------------------------------------

e----------------------------------
B----------------------------------
G----------------------------------
D-10-12-12-10-12-12-12-10-12-12-12-
A----------------------------------
E----------------------------------
Login or Register to remove this ad.