Login or Register to remove this ad.

Pearl's Theme (Phoenix Wright: Justice For All) Guitar Tab

Submitted: Feb 14, 2008 by Zelos (Last updated: Apr 14, 2008)

5
Average: 5 (1 vote)
Download | Listen
Game: Phoenix Wright: Justice For All
Composer(s): Naoto Tanaka
Style: 2 or more instruments, Arrangement
Series: Phoenix Wright

AutoScroll: Slow | Medium | Fast
Pearl's Theme      
~Phoenix Wright - Justice for All~
Composed by: Akemi Kimura
Arranged by: Zelos
Difficulty: Not too hard (16th notes)

BPM = 139


     S. S. S      E.  S E.  E.  S S E.  S    E.  S E.  Q    S E.  S  
E||--5--6--7-||---8---L-8---------5-------|-------------------6---8-|
B||----------||-------------6---L---8---6-|--5---6-8---6----L-------|
G||----------||*--------------------------|-------------------------|
D||----------||*--------------------------|-------------------------|
A||----------||---------------------------|-------------------------|
E||----------||---------------------------|-------------------------|


   E.   S  E.  S E.  S S. S. S    H.           S. S. S  
--10----L-10-----------6--5----|--3------------5--6--7-|
---------------6-8---L-------6-|-----------------------|
-------------------------------|-----------------------|
-------------------------------|-----------------------|
-------------------------------|-----------------------|
-------------------------------|-----------------------|


  E.  S E.  E.  S S E.  S    E.  S E.  Q    S S. S. S  
--8---L-8---------5-------|---------------------------|
------------6---L---8---6-|--5---6-8---6----L----5--6-|
--------------------------|-------------------7-------|
--------------------------|---------------------------|
--------------------------|---------------------------|
--------------------------|---------------------------|


  E.  S E.  S E.  S S. S. S    W                   E.  S E.  S E.  Q    S  
------------8-0---L-6--5----|-------------------|--5---L-5-----8---L------|
--8---L-8-----------------8-|--6----------------|------------8----------8-|
----------------------------|-------------------|-------------------------|
----------------------------|-------------------|-------------------------|
----------------------------|-------------------|-------------------------|
----------------------------|-------------------|-------------------------|


  E.  H.           S    E.  S E.  S Q.     S S     E.  S  E.  H        S  
--5---8------------L-|--5---L-5---8------------|-------------------------|
---------------------|--------------8------L---|---------10---8--------L-|
---------------------|-----------------------9-|--10---7-----------------|
---------------------|-------------------------|-------------------------|
---------------------|-------------------------|-------------------------|
---------------------|-------------------------|-------------------------|


  E.  S E.  S E.  Q    S    E.  H.           S    E.  S E.  S Q.     S S  
--5---L-5-----8---L------|--5---8------------L-|--5---L-5---8------------|
------------8----------8-|---------------------|--------------8------L---|
-------------------------|---------------------|-----------------------9-|
-------------------------|---------------------|-------------------------|
-------------------------|---------------------|-------------------------|
-------------------------|---------------------|-------------------------|


   E.  S  E.  H        S    H.           S. S. S    
-------------------------|---------------5--6--7--||
---------10---8--------L-|------------------------||
--10---7-----------------|-----------------------*||
-------------------------|-----------------------*||
-------------------------|------------------------||
-------------------------|------------------------||




Duration Legend
---------------
W - whole
H - half
Q - quarter
E - 8th
S - 16th


Tablature Legend
----------------
L - tied note


Pearl's Theme      
~Phoenix Wright - Justice for All~
Composed by: Akemi Kimura
Arranged by: Zelos
Difficulty: Easy (Just some rythm)

BPM = 139


     Q         E.  T T E.  T T E.  T T E.  T T  
E||-------||-----------------------------------|
B||-------||---1---L---1---L---3---L---3---L---|
G||-------||*--2---L---2---L---3---L---3---L---|
D||-------||*----------------------------------|
A||-------||-----------------------------------|
E||-------||-----------------------------------|


  E.  T T E.  T T E.  T T E.  T T    E.  T T E.  T T E.  T T E.  T T  
----------------------------------|----------------------------------|
--1---L---1---L---3---L---3---L---|--3---L---3---L---1---L---1---L---|
--0---L---0---L---2---L---2---L---|--3---L---3---L---2---L---2---L---|
----------------------------------|----------------------------------|
----------------------------------|----------------------------------|
----------------------------------|----------------------------------|


  E.  T T E.  T T E.  T T E.  T T    E.  T T E.  T T E.  T T E.  T T  
----------------------------------|----------------------------------|
--1---L---1---L---1---L---1---L---|--1---L---1---L---3---L---3---L---|
--0---L---0---L---0---L---0---L---|--2---L---2---L---3---L---3---L---|
----------------------------------|----------------------------------|
----------------------------------|----------------------------------|
----------------------------------|----------------------------------|


  E.  T T E.  T T E.  T T E.  T T    E.  T T E.  T T E.  T T E.  T T  
----------------------------------|------------------0---L---0---L---|
--1---L---1---L---3---L---3---L---|--3---L---3---L---1---L---1---L---|
--0---L---0---L---2---L---2---L---|--3---L---3---L-------------------|
----------------------------------|----------------------------------|
----------------------------------|----------------------------------|
----------------------------------|----------------------------------|


  E.  T T E.  T T E.  T T E.  T T    E.  T T E.  T T E.  T T E.  T T  
--1---L---1---L---1---L---1---L---|------------------0---L---0---L---|
--1---L---1---L---1---L---1---L---|--3---L---3---L---1---L---1---L---|
----------------------------------|--3---L---3---L-------------------|
----------------------------------|----------------------------------|
----------------------------------|----------------------------------|
----------------------------------|----------------------------------|


  E.  T T E.  T T E.  T T E.  T T    E.  T T E.  T T E.  T T E.  T T  
------------------0---L---0---L---|------------------0---L---0---L---|
--3---L---3---L---1---L---1---L---|--3---L---3---L---1---L---1---L---|
--3---L---3---L-------------------|--3---L---3---L-------------------|
----------------------------------|----------------------------------|
----------------------------------|----------------------------------|
----------------------------------|----------------------------------|


  E.  T T E.  T T E.  T T E.  T T    E.  T T E.  T T E.  T T E.  T T  
------------------0---L---0---L---|------------------0---L---0---L---|
--3---L---3---L---1---L---1---L---|--3---L---3---L---1---L---1---L---|
--3---L---3---L-------------------|--3---L---3---L-------------------|
----------------------------------|----------------------------------|
----------------------------------|----------------------------------|
----------------------------------|----------------------------------|


  E.  T T E.  T T E.  T T E.  T T    E.  T T E.  T T E.  T T E.  T T  
------------------0---L---0---L---|------------------0---L---0---L---|
--3---L---3---L---1---L---1---L---|--3---L---3---L---1---L---1---L---|
--3---L---3---L-------------------|--3---L---3---L-------------------|
----------------------------------|----------------------------------|
----------------------------------|----------------------------------|
----------------------------------|----------------------------------|


  S. S. S E.  H        S    S. S. S E.  H        S    
--------------0----------|--------------0-----------||
----------3---1----------|----------3---1-----------||
--0--0--3-3--------------|--3--0--0-3--------------*||
-------------------------|-------------------------*||
-------------------------|--------------------------||
-------------------------|--------------------------||




Duration Legend
---------------
W - whole
H - half
Q - quarter
E - 8th
S - 16th
T - 32nd

Tablature Legend
----------------
L - tied note
Login or Register to remove this ad.