Login or Register to remove this ad.

Circus (Phoenix Wright: Justice For All) Guitar Tab

Submitted: Oct 24, 2008 by Kralle (Last updated: Nov 14, 2009)

4
Average: 4 (1 vote)
Download | Listen
Game: Phoenix Wright: Justice For All
Composer(s): Naoto Tanaka
Style: Transcription
Series: Phoenix Wright

Click here for a video example.

AutoScroll: Slow | Medium | Fast
Title: Tachimi - Circus
Game: Phoenix Wright Ace Attorney 2: Justice for All
System: Nintendo DS
Tabbed by: Kralle


A:
1x
|--------------------------------------------------|
|--8~-7-8-9-8--------------------------------------|
|-------------8----8-8-7~------------------7-8-10--|
|---------------10--------8-----------9-10---------|
|---------------------------10--9-10---------------|
|--------------------------------------------------|

|--------------------------------------------------|
|--8~-7-8-9-8--------------------------------------|
|-------------8----8-8-7~--10-9--------------------|
|---------------10--------------9-10---------------|
|--------------------------------------------------|
|--------------------------------------------------|

B:
1x
|--------------------------------------------------|
|--------------------------------------------------|
|-----------7-8~--8--8-8-10------------------------|
|-10--10-10-----------------8----------------------|
|--------------------------------------------------|
|--------------------------------------------------|

|--------------------------------------------------|
|-----------------------8--8-9---------------------|
|-----------7-8--8-8-10--------10------------------|
|-10--10-10----------------------------------------|
|--------------------------------------------------|
|--------------------------------------------------|

C:
2x
|-------6--6--------6~-----------------------------|
|-----8-----------8--------------------------------|
|-8-8---------8-8----------------------------------|
|--------------------------------------------------|
|--------------------------------------------------|
|--------------------------------------------------|

Repeat :D
Login or Register to remove this ad.