Login or Register to remove this ad.

Objection! (Phoenix Wright: Ace Attorney) Guitar Tab

Submitted: Mar 21, 2008 by Zelos (Last updated: Apr 14, 2008)

4.5
Average: 4.5 (2 votes)
Download | Listen
Game: Phoenix Wright: Ace Attorney
Composer(s): Naoto Tanaka, Masakazu Sugimori
Style: Arrangement
Series: Phoenix Wright

AutoScroll: Slow | Medium | Fast
Objection!    
~Phoenix Wright: Ace Attorney~
Composed by: Akemi Kimura
Arranged by: Zelos                                 


Guitar I
BPM = 120  
Difficulty: Easy (The same thing over and over :) )


     S S S S  S S S S S S  S S S S S S     S H.           E.   
E||----------10-----------10-----------|--10------------------|
B||------8------------8------------8---|----------------------|
G||--7------------7------------7-------|----------------------|
D||------------------------------------|----------------------|
A||------------------------------------|----------------------|
E||------------------------------------|----------------------|


  S S S S  S S S S S S  S S S S S S     S S S S S S  S S S S S S  Q     
----------10-----------10-----------|--10-----------10-----------13----|
------8------------8------------8---|-----------8------------8---------|
--7------------7------------7-------|-------7------------7-------------|
------------------------------------|----------------------------------|
------------------------------------|----------------------------------|
------------------------------------|----------------------------------|


   S S S S S S  S S S S S S  S S S S    S S  S S S S S S  S E.  S S S S  
--10-----------10-----------10-------|------10-----------10---------8---|
-----------8------------8------------|--8------------8----------8-------|
-------7------------7------------7---|-----------7----------------------|
-------------------------------------|----------------------------------|
-------------------------------------|----------------------------------|
-------------------------------------|----------------------------------|


  S S S S  S S S S S S  S S S S S S     S S S S S S  S S S S S S  S S S S  
----------10-----------10-----------|--10-----------10-----------10-------|
------8------------8------------8---|-----------8------------8------------|
--7------------7------------7-------|-------7------------7------------7---|
------------------------------------|-------------------------------------|
------------------------------------|-------------------------------------|
------------------------------------|-------------------------------------|


  S S  S S S S S S  S S S S S S  S S    S S S S  S S S S S S  S S  Q     
------10-----------10-----------10---|----------10-----------10---13----|
--8------------8------------8--------|------8------------8--------------|
-----------7------------7------------|--7------------7------------------|
-------------------------------------|----------------------------------|
-------------------------------------|----------------------------------|
-------------------------------------|----------------------------------|


   S S S S S S  S S S S S S  S S S S    S S  S S S S S S  S S S S  S S  S S  
--10-----------10-----------10-------|------10-----------10-------10---11---|
-----------8------------8------------|--8------------8--------8-------------|
-------7------------7------------7---|-----------7--------------------------|
-------------------------------------|--------------------------------------|
-------------------------------------|--------------------------------------|
-------------------------------------|--------------------------------------|


  S S S S  S S S S S S  S S S S S S     S H.           S  S S  
----------10-----------10-----------|--10----------------10---|
------8------------8------------8---|-----------------------8-|
--7------------7------------7-------|-------------------------|
------------------------------------|-------------------------|
------------------------------------|-------------------------|
------------------------------------|-------------------------|


  S S S S  S S S S S S  S S S S S S     S H        E.   Q     
----------10-----------10-----------|--10--------------13----|
------8------------8------------8---|------------------------|
--7------------7------------7-------|------------------------|
------------------------------------|------------------------|
------------------------------------|------------------------|
------------------------------------|------------------------|


  S S S S  S S S S S S  S S S S S S     S H.           E.   
----------10-----------10-----------|--10------------------|
------8------------8------------8---|----------------------|
--7------------7------------7-------|----------------------|
------------------------------------|----------------------|
------------------------------------|----------------------|
------------------------------------|----------------------|


  S S S S  S S S S S S  S S S S S S     S H.           S  S S  
----------10-----------10-----------|--10----------------10---|
------8------------8------------8---|-----------------------8-|
--7------------7------------7-------|-------------------------|
------------------------------------|-------------------------|
------------------------------------|-------------------------|
------------------------------------|-------------------------|


  S S S S  S S S S S S  S S S S S S     S H        E.   Q     
----------10-----------10-----------|--10--------------13----|
------8------------8------------8---|------------------------|
--7------------7------------7-------|------------------------|
------------------------------------|------------------------|
------------------------------------|------------------------|
------------------------------------|------------------------|


  S S S S  S S S S S S  S S S S S S     S H.           E.   
----------10-----------10-----------|--10------------------|
------8------------8------------8---|----------------------|
--7------------7------------7-------|----------------------|
------------------------------------|----------------------|
------------------------------------|----------------------|
------------------------------------|----------------------|


  S S S S  S S S S S S  S S S S S S     S H.           S  S S  
----------10-----------10-----------|--10----------------10---|
------8------------8------------8---|-----------------------8-|
--7------------7------------7-------|-------------------------|
------------------------------------|-------------------------|
------------------------------------|-------------------------|
------------------------------------|-------------------------|


  S S S S  S S S S S S  S S S S S S     S H        E.   Q     
----------10-----------10-----------|--10--------------13----|
------8------------8------------8---|------------------------|
--7------------7------------7-------|------------------------|
------------------------------------|------------------------|
------------------------------------|------------------------|
------------------------------------|------------------------|


  S S S S  S S S S S S  S S S S S S     S H.           E.   
----------10-----------10-----------|--10------------------|
------8------------8------------8---|----------------------|
--7------------7------------7-------|----------------------|
------------------------------------|----------------------|
------------------------------------|----------------------|
------------------------------------|----------------------|


  S S S S  S S S S S S  S S S S S S     S H.           S  S S  
----------10-----------10-----------|--10----------------10---|
------8------------8------------8---|-----------------------8-|
--7------------7------------7-------|-------------------------|
------------------------------------|-------------------------|
------------------------------------|-------------------------|
------------------------------------|-------------------------|


  S S S S  S S S S S S  S S S S S S     S H        E.   Q     
----------10-----------10-----------|--10--------------13----|
------8------------8------------8---|------------------------|
--7------------7------------7-------|------------------------|
------------------------------------|------------------------|
------------------------------------|------------------------|
------------------------------------|------------------------|


  S S S S  S S S S S S  S S S S S S     S H.           E.   
----------10-----------10-----------|--10------------------|
------8------------8------------8---|----------------------|
--7------------7------------7-------|----------------------|
------------------------------------|----------------------|
------------------------------------|----------------------|
------------------------------------|----------------------|


  S S S S  S S S S S S  S S S S S S     S H.           S  S S  
----------10-----------10-----------|--10----------------10---|
------8------------8------------8---|-----------------------8-|
--7------------7------------7-------|-------------------------|
------------------------------------|-------------------------|
------------------------------------|-------------------------|
------------------------------------|-------------------------|


  S S S S  S S S S S S  S S S S S S     S H        E.   Q     
----------10-----------10-----------|--10--------------13----|
------8------------8------------8---|------------------------|
--7------------7------------7-------|------------------------|
------------------------------------|------------------------|
------------------------------------|------------------------|
------------------------------------|------------------------|


  S S S S  S S S S S S  S S S S S S     S H.           E.   
----------10-----------10-----------|--10------------------|
------8------------8------------8---|----------------------|
--7------------7------------7-------|----------------------|
------------------------------------|----------------------|
------------------------------------|----------------------|
------------------------------------|----------------------|


  S S S S  S S S S S S  S S S S S S     S H.           S  S S  
----------10-----------10-----------|--10----------------10---|
------8------------8------------8---|-----------------------8-|
--7------------7------------7-------|-------------------------|
------------------------------------|-------------------------|
------------------------------------|-------------------------|
------------------------------------|-------------------------|


  S S S S  S S S S S S  S S S S S S     S H        E.   Q     
----------10-----------10-----------|--10--------------13----|
------8------------8------------8---|------------------------|
--7------------7------------7-------|------------------------|
------------------------------------|------------------------|
------------------------------------|------------------------|
------------------------------------|------------------------|


  S S S S  S S S S S S  S S S S S S     S H.           E.   
----------10-----------10-----------|--10------------------|
------8------------8------------8---|----------------------|
--7------------7------------7-------|----------------------|
------------------------------------|----------------------|
------------------------------------|----------------------|
------------------------------------|----------------------|


  S S S S  S S S S S S  S S S S S S     S H.           S  S S  
----------10-----------10-----------|--10----------------10---|
------8------------8------------8---|-----------------------8-|
--7------------7------------7-------|-------------------------|
------------------------------------|-------------------------|
------------------------------------|-------------------------|
------------------------------------|-------------------------|


  S S S S  S S S S S S  S S S S S S     S H        E.   Q     
----------10-----------10-----------|--10--------------13----|
------8------------8------------8---|------------------------|
--7------------7------------7-------|------------------------|
------------------------------------|------------------------|
------------------------------------|------------------------|
------------------------------------|------------------------|


  S S S S  S S S S S S  S S S S S S     S H.           E.   
----------10-----------10-----------|--10------------------|
------8------------8------------8---|----------------------|
--7------------7------------7-------|----------------------|
------------------------------------|----------------------|
------------------------------------|----------------------|
------------------------------------|----------------------|


  S S S S  S S S S S S  S S S S S S     S H.           S  S S  
----------10-----------10-----------|--10----------------10---|
------8------------8------------8---|-----------------------8-|
--7------------7------------7-------|-------------------------|
------------------------------------|-------------------------|
------------------------------------|-------------------------|
------------------------------------|-------------------------|


  S S S S  S S S S S S  S S S S S S     S H        E.   Q     
----------10-----------10-----------|--10--------------13----|
------8------------8------------8---|------------------------|
--7------------7------------7-------|------------------------|
------------------------------------|------------------------|
------------------------------------|------------------------|
------------------------------------|------------------------|


  S S S S  S S S S S S  S S S S S S     S H        Q    E  S   
----------10-----------10-----------|--10--------------------||
------8------------8------------8---|------------------------||
--7------------7------------7-------|------------------------||
------------------------------------|------------------------||
------------------------------------|------------------------||
------------------------------------|------------------------||




Duration Legend
---------------
W - whole
H - half
Q - quarter
E - 8th
S - 16th
. - note dotted


Tablature Legend
----------------
L - tied note








----------------------------------------------------------









Guitar II
BPM = 120  
Difficulty: Easy (The same thing over and over :) )


     S. S. S. S. S. S. S. S. S. T S. T    S. S. S. S. S. S. S. S. S. T S. T  
E||------------------------------------|------------------------------------|
B||------------------------------------|------------------------------------|
G||------------------------------------|------------------------------------|
D||--5-----5-----5-----5-----5----5----|--3-----3-----3-----3-----3----3----|
A||--5-----5-----5-----5-----5----5----|--3-----3-----3-----3-----3----3----|
E||--3-----3-----3-----3-----3----3----|--1-----1-----1-----1-----1----1----|


  S. S. S. S. S. S. S. S. S. T S. T    S. S. S. S. S. S. S. S. S. T S. T  
------------------------------------|------------------------------------|
------------------------------------|------------------------------------|
--5-----5-----5-----5-----5----5----|--7-----7-----7-----7-----7----7----|
--5-----5-----5-----5-----5----5----|--7-----7-----7-----7-----7----7----|
--3-----3-----3-----3-----3----3----|--5-----5-----5-----5-----5----5----|
------------------------------------|------------------------------------|


  S. S. S. S. S. S. S. S. S. T S. T    S. S. S. S. S. T S. E  T S. T S. T  
------------------------------------|-------------------------------------|
------------------------------------|-------------------------------------|
--8-----8-----8-----8-----8----8----|-------------------------------------|
--8-----8-----8-----8-----8----8----|--3-----3-----3----3-------3----4----|
--6-----6-----6-----6-----6----6----|--3-----3-----3----3-------3----2----|
------------------------------------|--1-----1-----1----1-------1----2----|


  S. S. S. S. S. S. S. S. S. T S. T    S. S. S. S. S. S. S. S. S. T S. T  
------------------------------------|------------------------------------|
------------------------------------|------------------------------------|
------------------------------------|------------------------------------|
--5-----5-----5-----5-----5----5----|--3-----3-----3-----3-----3----3----|
--5-----5-----5-----5-----5----5----|--3-----3-----3-----3-----3----3----|
--3-----3-----3-----3-----3----3----|--1-----1-----1-----1-----1----1----|


  S. S. S. S. S. S. S. S. S. T S. T    S. S. S. S. S. S. S. S. S. T S. T  
------------------------------------|------------------------------------|
------------------------------------|------------------------------------|
--5-----5-----5-----5-----5----5----|--7-----7-----7-----7-----7----7----|
--5-----5-----5-----5-----5----5----|--7-----7-----7-----7-----7----7----|
--3-----3-----3-----3-----3----3----|--5-----5-----5-----5-----5----5----|
------------------------------------|------------------------------------|


  S. S. S. S. S. S. S. S. S. T S. T    S. S. S. S. S. S. S. S. S. T S. T  
------------------------------------|------------------------------------|
------------------------------------|------------------------------------|
--8-----8-----8-----8-----8----8----|------------------------------------|
--8-----8-----8-----8-----8----8----|--3-----3-----3-----3-----3----3----|
--6-----6-----6-----6-----6----6----|--3-----3-----3-----3-----3----3----|
------------------------------------|--1-----1-----1-----1-----1----1----|


  S. S. S. S. S. S. S. S. S. T S. T    S. S. S. S. S. S. S. S. S. T S. T  
------------------------------------|------------------------------------|
------------------------------------|------------------------------------|
------------------------------------|------------------------------------|
--5-----5-----5-----5-----5----5----|--3-----3-----3-----3-----3----3----|
--5-----5-----5-----5-----5----5----|--3-----3-----3-----3-----3----3----|
--3-----3-----3-----3-----3----3----|--1-----1-----1-----1-----1----1----|


  S. S. S. S. S. S. S. S. S. T S. T    S. S. S. S. S. S. S. S. S. T S. T  
------------------------------------|------------------------------------|
------------------------------------|------------------------------------|
--5-----5-----5-----5-----5----5----|--7-----7-----7-----7-----7----7----|
--5-----5-----5-----5-----5----5----|--7-----7-----7-----7-----7----7----|
--3-----3-----3-----3-----3----3----|--5-----5-----5-----5-----5----5----|
------------------------------------|------------------------------------|


  S. S. S. S. S. S. S. S. S. T S. T    S. S. S. S. S. S. S. S. S. T S. T  
------------------------------------|------------------------------------|
------------------------------------|------------------------------------|
--8-----8-----8-----8-----8----8----|------------------------------------|
--8-----8-----8-----8-----8----8----|--3-----3-----3-----3-----3----3----|
--6-----6-----6-----6-----6----6----|--3-----3-----3-----3-----3----3----|
------------------------------------|--1-----1-----1-----1-----1----1----|


  S. S. S. S. S. S. S. S. S. T S. T    S. S. S. S. S. S. S. S. S. T S. T  
------------------------------------|------------------------------------|
------------------------------------|------------------------------------|
------------------------------------|------------------------------------|
--5-----5-----5-----5-----5----5----|--3-----3-----3-----3-----3----3----|
--5-----5-----5-----5-----5----5----|--3-----3-----3-----3-----3----3----|
--3-----3-----3-----3-----3----3----|--1-----1-----1-----1-----1----1----|


  S. S. S. S. S. S. S. S. S. T S. T    S. S. S. S. S. S. S. S. S. T S. T  
------------------------------------|------------------------------------|
------------------------------------|------------------------------------|
--5-----5-----5-----5-----5----5----|--7-----7-----7-----7-----7----7----|
--5-----5-----5-----5-----5----5----|--7-----7-----7-----7-----7----7----|
--3-----3-----3-----3-----3----3----|--5-----5-----5-----5-----5----5----|
------------------------------------|------------------------------------|


  S. S. S. S. S. S. S. S. S. T S. T    S. S. S. S. S. S. S. S. S. T S. T  
------------------------------------|------------------------------------|
------------------------------------|------------------------------------|
--8-----8-----8-----8-----8----8----|------------------------------------|
--8-----8-----8-----8-----8----8----|--3-----3-----3-----3-----3----3----|
--6-----6-----6-----6-----6----6----|--3-----3-----3-----3-----3----3----|
------------------------------------|--1-----1-----1-----1-----1----1----|


  S. S. S. S. S. S. S. S. S. T S. T    S. S. S. S. S. S. S. S. S. T S. T  
------------------------------------|------------------------------------|
------------------------------------|------------------------------------|
------------------------------------|------------------------------------|
--5-----5-----5-----5-----5----5----|--3-----3-----3-----3-----3----3----|
--5-----5-----5-----5-----5----5----|--3-----3-----3-----3-----3----3----|
--3-----3-----3-----3-----3----3----|--1-----1-----1-----1-----1----1----|


  S. S. S. S. S. S. S. S. S. T S. T    S. S. S. S. S. S. S. S. S. T S. T  
------------------------------------|------------------------------------|
------------------------------------|------------------------------------|
--5-----5-----5-----5-----5----5----|--7-----7-----7-----7-----7----7----|
--5-----5-----5-----5-----5----5----|--7-----7-----7-----7-----7----7----|
--3-----3-----3-----3-----3----3----|--5-----5-----5-----5-----5----5----|
------------------------------------|------------------------------------|


  S. S. S. S. S. S. S. S. S. T S. T    S. S. S. S. S. S. S. S. S. T S. T  
------------------------------------|------------------------------------|
------------------------------------|------------------------------------|
--8-----8-----8-----8-----8----8----|------------------------------------|
--8-----8-----8-----8-----8----8----|--3-----3-----3-----3-----3----3----|
--6-----6-----6-----6-----6----6----|--3-----3-----3-----3-----3----3----|
------------------------------------|--1-----1-----1-----1-----1----1----|


  S. S. S. S. S. S. S. S. S. T S. T    S. S. S. S. S. S. S. S. S. T S. T  
------------------------------------|------------------------------------|
------------------------------------|------------------------------------|
------------------------------------|------------------------------------|
--5-----5-----5-----5-----5----5----|--3-----3-----3-----3-----3----3----|
--5-----5-----5-----5-----5----5----|--3-----3-----3-----3-----3----3----|
--3-----3-----3-----3-----3----3----|--1-----1-----1-----1-----1----1----|


  S. S. S. S. S. S. S. S. S. T S. T    S. S. S. S. S. S. S. S. S. T S. T  
------------------------------------|------------------------------------|
------------------------------------|------------------------------------|
--5-----5-----5-----5-----5----5----|--7-----7-----7-----7-----7----7----|
--5-----5-----5-----5-----5----5----|--7-----7-----7-----7-----7----7----|
--3-----3-----3-----3-----3----3----|--5-----5-----5-----5-----5----5----|
------------------------------------|------------------------------------|


  S. S. S. S. S. S. S. S. S. T S. T    S. S. S. S. S. S. S. S. S. T S. T  
------------------------------------|------------------------------------|
------------------------------------|------------------------------------|
--8-----8-----8-----8-----8----8----|------------------------------------|
--8-----8-----8-----8-----8----8----|--3-----3-----3-----3-----3----3----|
--6-----6-----6-----6-----6----6----|--3-----3-----3-----3-----3----3----|
------------------------------------|--1-----1-----1-----1-----1----1----|


  S. S. S. S. S. S. S. S. S. T S. T    S. S. S. S. S. S. S. S. S. T S. T  
------------------------------------|------------------------------------|
------------------------------------|------------------------------------|
------------------------------------|------------------------------------|
--5-----5-----5-----5-----5----5----|--3-----3-----3-----3-----3----3----|
--5-----5-----5-----5-----5----5----|--3-----3-----3-----3-----3----3----|
--3-----3-----3-----3-----3----3----|--1-----1-----1-----1-----1----1----|


  S. S. S. S. S. S. S. S. S. T S. T    S. S. S. S. S. S. S. S. S. T S. T  
------------------------------------|------------------------------------|
------------------------------------|------------------------------------|
--5-----5-----5-----5-----5----5----|--7-----7-----7-----7-----7----7----|
--5-----5-----5-----5-----5----5----|--7-----7-----7-----7-----7----7----|
--3-----3-----3-----3-----3----3----|--5-----5-----5-----5-----5----5----|
------------------------------------|------------------------------------|


  S. S. S. S. S. S. S. S. S. T S. T    S. S. S. S. S. S. S. S. S. T S. T  
------------------------------------|------------------------------------|
------------------------------------|------------------------------------|
--8-----8-----8-----8-----8----8----|------------------------------------|
--8-----8-----8-----8-----8----8----|--3-----3-----3-----3-----3----3----|
--6-----6-----6-----6-----6----6----|--3-----3-----3-----3-----3----3----|
------------------------------------|--1-----1-----1-----1-----1----1----|


  S. S. S. S. S. S. S. S. S. T S. T    S. S. S. S. S. S. S. S. S. T S. T  
------------------------------------|------------------------------------|
------------------------------------|------------------------------------|
------------------------------------|------------------------------------|
--5-----5-----5-----5-----5----5----|--3-----3-----3-----3-----3----3----|
--5-----5-----5-----5-----5----5----|--3-----3-----3-----3-----3----3----|
--3-----3-----3-----3-----3----3----|--1-----1-----1-----1-----1----1----|


  S. S. S. S. S. S. S. S. S. T S. T    S. S. S. S. S. S. S. S. S. T S. T  
------------------------------------|------------------------------------|
------------------------------------|------------------------------------|
--5-----5-----5-----5-----5----5----|--7-----7-----7-----7-----7----7----|
--5-----5-----5-----5-----5----5----|--7-----7-----7-----7-----7----7----|
--3-----3-----3-----3-----3----3----|--5-----5-----5-----5-----5----5----|
------------------------------------|------------------------------------|


  S. S. S. S. S. S. S. S. S. T S. T    S. S. S. S. S. S. S. S. S. T S. T  
------------------------------------|------------------------------------|
------------------------------------|------------------------------------|
--8-----8-----8-----8-----8----8----|------------------------------------|
--8-----8-----8-----8-----8----8----|--3-----3-----3-----3-----3----3----|
--6-----6-----6-----6-----6----6----|--3-----3-----3-----3-----3----3----|
------------------------------------|--1-----1-----1-----1-----1----1----|


  S. S. S. S. S. S. S. S. S. T S. T    S. S. S. S. S. S. S. S. S. T S. T  
------------------------------------|------------------------------------|
------------------------------------|------------------------------------|
------------------------------------|------------------------------------|
--5-----5-----5-----5-----5----5----|--3-----3-----3-----3-----3----3----|
--5-----5-----5-----5-----5----5----|--3-----3-----3-----3-----3----3----|
--3-----3-----3-----3-----3----3----|--1-----1-----1-----1-----1----1----|


  S. S. S. S. S. S. S. S. S. T S. T    S. S. S. S. S. S. S. S. S. T S. T  
------------------------------------|------------------------------------|
------------------------------------|------------------------------------|
--5-----5-----5-----5-----5----5----|--7-----7-----7-----7-----7----7----|
--5-----5-----5-----5-----5----5----|--7-----7-----7-----7-----7----7----|
--3-----3-----3-----3-----3----3----|--5-----5-----5-----5-----5----5----|
------------------------------------|------------------------------------|


  S. S. S. S. S. S. S. S. S. T S. T    S. S. S. S. S. S. S. S. S. T S. T  
------------------------------------|------------------------------------|
------------------------------------|------------------------------------|
--8-----8-----8-----8-----8----8----|------------------------------------|
--8-----8-----8-----8-----8----8----|--3-----3-----3-----3-----3----3----|
--6-----6-----6-----6-----6----6----|--3-----3-----3-----3-----3----3----|
------------------------------------|--1-----1-----1-----1-----1----1----|


  S. S. S. S. S. S. S. S. S. T S. T    S. S. S. S. S. S. S. S. S. T S. T  
------------------------------------|------------------------------------|
------------------------------------|------------------------------------|
------------------------------------|------------------------------------|
--5-----5-----5-----5-----5----5----|--3-----3-----3-----3-----3----3----|
--5-----5-----5-----5-----5----5----|--3-----3-----3-----3-----3----3----|
--3-----3-----3-----3-----3----3----|--1-----1-----1-----1-----1----1----|


  S. S. S. S. S. S. S. S. S. T S. T    S. S. S. S. S. S. S. S. S. T S. T  
------------------------------------|------------------------------------|
------------------------------------|------------------------------------|
--5-----5-----5-----5-----5----5----|--7-----7-----7-----7-----7----7----|
--5-----5-----5-----5-----5----5----|--7-----7-----7-----7-----7----7----|
--3-----3-----3-----3-----3----3----|--5-----5-----5-----5-----5----5----|
------------------------------------|------------------------------------|


  S. S. S. S. S. S. S. S. S. T S. T    S. S. S. S. S. S. S. S. S. T S. T   
------------------------------------|------------------------------------||
------------------------------------|------------------------------------||
--8-----8-----8-----8-----8----8----|------------------------------------||
--8-----8-----8-----8-----8----8----|--3-----3-----3-----3-----3----3----||
--6-----6-----6-----6-----6----6----|--3-----3-----3-----3-----3----3----||
------------------------------------|--1-----1-----1-----1-----1----1----||




Duration Legend
---------------
W - whole
H - half
Q - quarter
E - 8th
S - 16th
. - note dotted
Login or Register to remove this ad.