Login or Register to remove this ad.

Investigation: Cornered (Phoenix Wright: Ace Attorney) Guitar Tab

Submitted: May 09, 2007 by archard (Last updated: Apr 14, 2008)

5
Average: 5 (7 votes)
Download | Listen
Game: Phoenix Wright: Ace Attorney
Composer(s): Naoto Tanaka, Masakazu Sugimori
Style: Transcription
Series: Phoenix Wright

AutoScroll: Slow | Medium | Fast
Investigation: Cornered
Phoenix Wright: Ace Attorney
Composed by Akemi Kimura
Tabbed by Richard Schaefer ([email protected])
5/10/07

Here's the background guitar that plays for the entirety of the song.
They are just the following power chords played in the following order.

   F                F#              Eb
e------          e------          e-----
B------          B------          B-----
G--10--          G--11--          G--8--
D--10--          D--11--          D--8--
A---8--          A---9--          A--6--
E------          E------          E-----

I'm always hesitant to try to show the exact strumming, so just know
that the power chords are played in this order:

F.....F#.....F.....Eb

Just repeated over and over and over and over and over and over and......

And here's the main theme

e------8-----6h8-----------6----------
B--8-------------6-----6h9-----8------
G----------------------------------8--
D-------------------------------------
A-------------------------------------
E-------------------------------------

e--------8-9----8---6----11----8----------------------
B--6--------------9-----------------11-9-8----9----6--
G-----------------------------------------------------
D-----------------------------------------------------
A-----------------------------------------------------
E-----------------------------------------------------

e--------11-------------------------------------
B--13---------9h11p9-----11h13p11---------------
G-------------------------------------12--------
D-------------------------------------------13--
A-----------------------------------------------
E-----------------------------------------------

e-------------------------------------------------------------
B----------------------------------------11-------------------
G--10--------------------12--13----10----------12-------------
D--------10----11----13----------------------------13---------
A------------------------------------------------------13h15--
E-------------------------------------------------------------

Repeat
Login or Register to remove this ad.

7 comments on Investigation: Cornered

Hey, thanks! I've been

Hey, thanks!

I've been waiting for someone to make a tab of this since i first played Phoenix Wright 1! Every song on the game is awesome. Are you going to make more Phoenix Wright tabs?

Sure, if you request them in

Sure, if you request them in the forum.

hey this tab is awesome. i

hey this tab is awesome. i loved the cornered song in phoenix wright.

Hey thanks alot I've looked

Hey thanks alot I've looked everywhere for this song! It's the best x

wow!!! awesome tab!!! ups

wow!!! awesome tab!!! ups for your dude!!!

This was awesome! This

5

This was awesome! This really helped me to understand how to hammer on / pull off! Thanks for this awesome tab!

WOW

5

LOOKING FORWARD FOR MORE PHOENIX WRIGHT TABS!