Login or Register to remove this ad.

Cross-Examination Allegro (Phoenix Wright: Ace Attorney) Guitar Tab

Submitted: Oct 23, 2007 by darkadex (Last updated: May 15, 2008)

3
Average: 3 (2 votes)
Download | Listen
Game: Phoenix Wright: Ace Attorney
Composer(s): Naoto Tanaka, Masakazu Sugimori
Style: 2 or more instruments, Transcription
Series: Phoenix Wright

AutoScroll: Slow | Medium | Fast
                   Phoenix Wright Cross-Examination Allegro                     


                                                               Sugimori Masakazu
Melody



     Q    E  E  Q    Q       E  E  Q    Q    Q       Q    E  E  Q    Q     
E||-----------------------|-----------------------|-----------------------|
B||----------0-------1----|-----0-------3----0----|--1-------0------------|
G||--2--------------------|-----------------------|------------------0----|
D||-----------------------|-----------------------|-----------------------|
A||-----------------------|-----------------------|-----------------------|
E||-----------------------|-----------------------|-----------------------|


  E  E  Q    Q    Q       Q    E  E  Q    Q       E  E  Q    Q    Q     
-----------------------|-----------------------|-----------------------|
------------------0----|----------0-------1----|-----0-------3----0----|
-------------0---------|--2--------------------|-----------------------|
-----2-----------------|-----------------------|-----------------------|
-----------------------|-----------------------|-----------------------|
-----------------------|-----------------------|-----------------------|


  Q    E  E  Q    Q       E  E  Q    Q    Q       Q    E  E  Q    Q     
-----------------------|-----------------------|-----------------------|
--1-------0------------|------------------0----|----------0-------1----|
------------------0----|-----------------------|--2--------------------|
-----------------------|-----0-------2---------|-----------------------|
-----------------------|-----------------------|-----------------------|
-----------------------|-----------------------|-----------------------|


  E  E  Q    Q    Q       Q    E  E  Q    Q       E  E  Q    Q    Q     
-----------------------|-----------------------|-----------------------|
-----0-------3----0----|--1-------0------------|------------------0----|
-----------------------|------------------0----|-------------0---------|
-----------------------|-----------------------|-----2-----------------|
-----------------------|-----------------------|-----------------------|
-----------------------|-----------------------|-----------------------|


  Q    E  E  Q    Q       E  E  Q    Q    Q       Q    E  E  Q    Q     
-----------------------|-----------------------|-----------------------|
----------0-------1----|-----0-------3----0----|--1-------0------------|
--2--------------------|-----------------------|------------------0----|
-----------------------|-----------------------|-----------------------|
-----------------------|-----------------------|-----------------------|
-----------------------|-----------------------|-----------------------|


  E  E  Q    Q    Q       Q    E  E  Q    Q       E  E  Q    Q    Q     
-----------------------|-----------------------|-----------------------|
------------------0----|----------0-------1----|-----0-------3----0----|
-------------0---------|--2--------------------|-----------------------|
-----2-----------------|-----------------------|-----------------------|
-----------------------|-----------------------|-----------------------|
-----------------------|-----------------------|-----------------------|


  Q    E  E  Q    Q       E  E  Q    Q    Q       Q    E  E  Q    Q     
-----------------------|-----------------------|-----------------------|
--1-------0------------|------------------0----|----------0-------1----|
------------------0----|-----------------------|--2--------------------|
-----------------------|-----0-------2---------|-----------------------|
-----------------------|-----------------------|-----------------------|
-----------------------|-----------------------|-----------------------|


  E  E  Q    Q    Q       Q    E  E  Q    Q       E  E  Q    Q    Q     
-----------------------|-----------------------|-----------------------|
-----0-------3----0----|--1-------0------------|------------------0----|
-----------------------|------------------0----|-----------------------|
-----------------------|-----------------------|-----0-------2---------|
-----------------------|-----------------------|-----------------------|
-----------------------|-----------------------|-----------------------|


    E  E  H.              Q.     S S E  E  E  E     E  E  H        E  E   
|----------------------|-------------------------|--------------------0--|
|----------------------|-----------0-1--3--1--3--|-----------------------|
|*--2--2---------------|---------2---------------|--2--2-----------------|
|*---------------------|-------------------------|-----------------------|
|----------------------|-------------------------|-----------------------|
|----------------------|-------------------------|-----------------------|


  E  E  E  E  E  E  E  E     E  E  H        E  S S    E  Q    E  E  E  E  E   
-----0--3-----0-----------|------------------------|-------------------------|
--3--------3-----0--1--0--|------------------------|--1--3----0--L--0--------|
--------------------------|--0--0--------------0-2-|-------------------2--0--|
--------------------------|------------------------|-------------------------|
--------------------------|------------------------|-------------------------|
--------------------------|------------------------|-------------------------|


  E  E  H.              Q.     E  E  E  E  E     Q    E  E  Q    Q     
---------------------|---------0--------------|-----------------------|
---------------------|------------3--1--0-----|----------0-------1----|
--2--2---------------|---------------------2--|-----------------------|
---------------------|------------------------|--7--------------------|
---------------------|------------------------|-----------------------|
---------------------|------------------------|-----------------------|


  E  E  Q    Q    Q       Q    E  E  Q    Q       E  E  Q    Q    Q     
-----------------------|-----------------------|-----------------------|
-----0-------3----0----|--1-------0------------|------------------0----|
-----------------------|------------------0----|-------------0---------|
-----------------------|-----------------------|-----2-----------------|
-----------------------|-----------------------|-----------------------|
-----------------------|-----------------------|-----------------------|


  Q    E  E  Q    Q       E  E  Q    Q    Q       Q    E  E  Q    Q     
-----------------------|-----------------------|-----------------------|
----------0-------1----|-----0-------3----0----|--1-------0------------|
--2--------------------|-----------------------|------------------0----|
-----------------------|-----------------------|-----------------------|
-----------------------|-----------------------|-----------------------|
-----------------------|-----------------------|-----------------------|


  E  E  Q    Q    Q       Q    E  E  Q    Q       E  E  Q    Q    Q     
-----------------------|-----------------------|-----------------------|
------------------0----|----------0-------1----|-----0-------3----0----|
-----------------------|--2--------------------|-----------------------|
-----0-------2---------|-----------------------|-----------------------|
-----------------------|-----------------------|-----------------------|
-----------------------|-----------------------|-----------------------|


  Q    E  E  Q    Q       E  E  Q    Q    Q       Q    E  E  Q    Q     
-----------------------|-----------------------|-----------------------|
--1-------0------------|------------------0----|----------0-------1----|
------------------0----|-------------0---------|--2--------------------|
-----------------------|-----2-----------------|-----------------------|
-----------------------|-----------------------|-----------------------|
-----------------------|-----------------------|-----------------------|


  E  E  Q    Q    Q       Q    E  E  Q    Q       E  E  Q    Q    Q     
-----------------------|-----------------------|-----------------------|
-----0-------3----0----|--1-------0------------|------------------0----|
-----------------------|------------------0----|-----------------------|
-----------------------|-----------------------|-----0-------2---------|
-----------------------|-----------------------|-----------------------|
-----------------------|-----------------------|-----------------------|


  Q    E  E  Q    Q       E  E  Q    Q    Q       Q    E  E  Q    Q     
-----------------------|-----------------------|-----------------------|
----------0-------1----|-----0-------3----0----|--1-------0------------|
--2--------------------|-----------------------|------------------0----|
-----------------------|-----------------------|-----------------------|
-----------------------|-----------------------|-----------------------|
-----------------------|-----------------------|-----------------------|


  E  E  Q    Q    Q       Q    E  E  Q    Q       E  E  Q    Q    Q     
-----------------------|-----------------------|-----------------------|
------------------0----|----------0-------1----|-----0-------3----0----|
-------------0---------|--2--------------------|-----------------------|
-----2-----------------|-----------------------|-----------------------|
-----------------------|-----------------------|-----------------------|
-----------------------|-----------------------|-----------------------|


  Q    E  E  Q    Q       E  E  Q    Q    Q       
-----------------------|------------------------||
--1-------0------------|------------------0-----||
------------------0----|-----------------------*||
-----------------------|-----0-------2---------*||
-----------------------|------------------------||
-----------------------|------------------------||




Duration Legend
---------------
W - whole
H - half
Q - quarter
E - 8th
S - 16th
T - 32nd
X - 64th
. - note dotted
|-n-|  - n-tuplets

Guitar 2

                   Phoenix Wright Cross-Examination Allegro                     


                                                               Sugimori Masakazu
Hrmny1



     W                   W                   W                 
E||-------------------|-------------------|-------------------|
B||-------------------|-------------------|-------------------|
G||-------------------|-------------------|-------------------|
D||-------------------|-------------------|-------------------|
A||-------------------|-------------------|-------------------|
E||-------------------|-------------------|-------------------|


  W                   W                   W                   W                 
-------------------|-------------------|-------------------|-------------------|
-------------------|-------------------|-------------------|-------------------|
-------------------|-------------------|-------------------|-------------------|
-------------------|-------------------|-------------------|-------------------|
-------------------|-------------------|-------------------|-------------------|
-------------------|-------------------|-------------------|-------------------|


  W                   W                   W                   W                 
-------------------|--0----------------|--7----------------|--8----------------|
-------------------|-------------------|-------------------|-------------------|
-------------------|-------------------|-------------------|-------------------|
-------------------|-------------------|-------------------|-------------------|
-------------------|-------------------|-------------------|-------------------|
-------------------|-------------------|-------------------|-------------------|


  W                   W                   W                   W                 
--7----------------|-------------------|--5----------------|--8----------------|
-------------------|-------------------|-------------------|-------------------|
-------------------|-------------------|-------------------|-------------------|
-------------------|-------------------|-------------------|-------------------|
-------------------|-------------------|-------------------|-------------------|
-------------------|-------------------|-------------------|-------------------|


  W                   W                   W                   W                 
--7----------------|--5----------------|--8----------------|--7----------------|
-------------------|-------------------|-------------------|-------------------|
-------------------|-------------------|-------------------|-------------------|
-------------------|-------------------|-------------------|-------------------|
-------------------|-------------------|-------------------|-------------------|
-------------------|-------------------|-------------------|-------------------|


  W                   W                   W                   W                 
--3----------------|--5----------------|--8----------------|--7----------------|
-------------------|-------------------|-------------------|-------------------|
-------------------|-------------------|-------------------|-------------------|
-------------------|-------------------|-------------------|-------------------|
-------------------|-------------------|-------------------|-------------------|
-------------------|-------------------|-------------------|-------------------|


  W                     W                   H        H         
--3----------------||--------------------|-----------7--------|
-------------------||--------------------|--------------------|
-------------------||*-------------------|--------------------|
-------------------||*-------------------|--------------------|
-------------------||--------------------|--------------------|
-------------------||--------------------|--------------------|


  Q    H.              H        H           Q    H.            
--5-----------------|--7--------3--------|--------------------|
--------------------|--------------------|--3-----------------|
--------------------|--------------------|--------------------|
--------------------|--------------------|--------------------|
--------------------|--------------------|--------------------|
--------------------|--------------------|--------------------|


  Q    Q    H           Q    H.              W                 
-------5----7--------|--3-----------------|-------------------|
---------------------|--------------------|-------------------|
---------------------|--------------------|-------------------|
---------------------|--------------------|-------------------|
---------------------|--------------------|-------------------|
---------------------|--------------------|-------------------|


  W                   W                   W                   W                 
-------------------|-------------------|-------------------|-------------------|
-------------------|-------------------|-------------------|-------------------|
-------------------|-------------------|-------------------|-------------------|
-------------------|-------------------|-------------------|-------------------|
-------------------|-------------------|-------------------|-------------------|
-------------------|-------------------|-------------------|-------------------|


  W                   W                   W                   W                 
-------------------|-------------------|-------------------|-------------------|
-------------------|-------------------|-------------------|-------------------|
-------------------|-------------------|-------------------|-------------------|
-------------------|-------------------|-------------------|-------------------|
-------------------|-------------------|-------------------|-------------------|
-------------------|-------------------|-------------------|-------------------|


  W                   W                   W                   W                 
--0----------------|--7----------------|--8----------------|--7----------------|
-------------------|-------------------|-------------------|-------------------|
-------------------|-------------------|-------------------|-------------------|
-------------------|-------------------|-------------------|-------------------|
-------------------|-------------------|-------------------|-------------------|
-------------------|-------------------|-------------------|-------------------|


  W                   W                   W                   W                 
-------------------|--5----------------|--8----------------|--7----------------|
-------------------|-------------------|-------------------|-------------------|
-------------------|-------------------|-------------------|-------------------|
-------------------|-------------------|-------------------|-------------------|
-------------------|-------------------|-------------------|-------------------|
-------------------|-------------------|-------------------|-------------------|


  W                   W                   W                   W                 
--5----------------|--8----------------|--7----------------|--3----------------|
-------------------|-------------------|-------------------|-------------------|
-------------------|-------------------|-------------------|-------------------|
-------------------|-------------------|-------------------|-------------------|
-------------------|-------------------|-------------------|-------------------|
-------------------|-------------------|-------------------|-------------------|


  W                   W                   W                 
--5----------------|--8----------------|--7----------------|
-------------------|-------------------|-------------------|
-------------------|-------------------|-------------------|
-------------------|-------------------|-------------------|
-------------------|-------------------|-------------------|
-------------------|-------------------|-------------------|


  W                   
--3-----------------||
--------------------||
-------------------*||
-------------------*||
--------------------||
--------------------||




Duration Legend
---------------
W - whole
H - half
Q - quarter
E - 8th
S - 16th
T - 32nd
X - 64th
. - note dotted
|-n-|  - n-tuplets





                   Phoenix Wright Cross-Examination Allegro                     


                                                               Sugimori Masakazu
Hrmny2



     W                   W                   W                 
E||-------------------|-------------------|-------------------|
B||-------------------|-------------------|-------------------|
G||-------------------|-------------------|-------------------|
D||-------------------|-------------------|-------------------|
A||-------------------|-------------------|-------------------|
E||-------------------|-------------------|-------------------|


  W                   W                   W                   W                 
-------------------|-------------------|-------------------|-------------------|
-------------------|-------------------|-------------------|-------------------|
-------------------|-------------------|-------------------|-------------------|
-------------------|-------------------|-------------------|-------------------|
-------------------|-------------------|-------------------|-------------------|
-------------------|-------------------|-------------------|-------------------|


  W                   W                   W                   W                 
-------------------|-------------------|-------------------|-------------------|
-------------------|-------------------|--0----------------|--1----------------|
-------------------|-------------------|-------------------|-------------------|
-------------------|--2----------------|-------------------|-------------------|
-------------------|-------------------|-------------------|-------------------|
-------------------|-------------------|-------------------|-------------------|


  W                   W                   W                   W                 
-------------------|-------------------|-------------------|-------------------|
--0----------------|-------------------|-------------------|--3----------------|
-------------------|-------------------|--2----------------|-------------------|
-------------------|-------------------|-------------------|-------------------|
-------------------|-------------------|-------------------|-------------------|
-------------------|-------------------|-------------------|-------------------|


  W                   W                   W                   W                 
-------------------|--0----------------|--0----------------|-------------------|
--0----------------|-------------------|-------------------|--0----------------|
-------------------|-------------------|-------------------|-------------------|
-------------------|-------------------|-------------------|-------------------|
-------------------|-------------------|-------------------|-------------------|
-------------------|-------------------|-------------------|-------------------|


  W                   W                   W                   W                 
-------------------|-------------------|--0----------------|-------------------|
-------------------|-------------------|-------------------|--3----------------|
--0----------------|--2----------------|-------------------|-------------------|
-------------------|-------------------|-------------------|-------------------|
-------------------|-------------------|-------------------|-------------------|
-------------------|-------------------|-------------------|-------------------|


  W                     W                   H        H         
-------------------||--------------------|--------------------|
-------------------||--------------------|-----------0--------|
--0----------------||*-------------------|--------------------|
-------------------||*-------------------|--------------------|
-------------------||--------------------|--------------------|
-------------------||--------------------|--------------------|


  Q    H.              H        H           Q    H.            
--------------------|--------------------|--------------------|
--------------------|--0-----------------|--------------------|
--2-----------------|-----------0--------|--------------------|
--------------------|--------------------|--2-----------------|
--------------------|--------------------|--------------------|
--------------------|--------------------|--------------------|


  Q    Q    H           Q    H.              W                 
---------------------|--------------------|-------------------|
------------0--------|--------------------|-------------------|
-------2-------------|--0-----------------|-------------------|
---------------------|--------------------|-------------------|
---------------------|--------------------|-------------------|
---------------------|--------------------|-------------------|


  W                   W                   W                   W                 
-------------------|-------------------|-------------------|-------------------|
-------------------|-------------------|-------------------|-------------------|
-------------------|-------------------|-------------------|-------------------|
-------------------|-------------------|-------------------|-------------------|
-------------------|-------------------|-------------------|-------------------|
-------------------|-------------------|-------------------|-------------------|


  W                   W                   W                   W                 
-------------------|-------------------|-------------------|-------------------|
-------------------|-------------------|-------------------|-------------------|
-------------------|-------------------|-------------------|-------------------|
-------------------|-------------------|-------------------|-------------------|
-------------------|-------------------|-------------------|-------------------|
-------------------|-------------------|-------------------|-------------------|


  W                   W                   W                   W                 
-------------------|-------------------|-------------------|-------------------|
-------------------|--0----------------|--1----------------|--0----------------|
-------------------|-------------------|-------------------|-------------------|
--2----------------|-------------------|-------------------|-------------------|
-------------------|-------------------|-------------------|-------------------|
-------------------|-------------------|-------------------|-------------------|


  W                   W                   W                   W                 
-------------------|-------------------|-------------------|-------------------|
-------------------|-------------------|--3----------------|--0----------------|
-------------------|--2----------------|-------------------|-------------------|
-------------------|-------------------|-------------------|-------------------|
-------------------|-------------------|-------------------|-------------------|
-------------------|-------------------|-------------------|-------------------|


  W                   W                   W                   W                 
--0----------------|--0----------------|-------------------|-------------------|
-------------------|-------------------|--0----------------|-------------------|
-------------------|-------------------|-------------------|--0----------------|
-------------------|-------------------|-------------------|-------------------|
-------------------|-------------------|-------------------|-------------------|
-------------------|-------------------|-------------------|-------------------|


  W                   W                   W                 
-------------------|--0----------------|-------------------|
-------------------|-------------------|--3----------------|
--2----------------|-------------------|-------------------|
-------------------|-------------------|-------------------|
-------------------|-------------------|-------------------|
-------------------|-------------------|-------------------|


  W                   
--------------------||
--------------------||
--0----------------*||
-------------------*||
--------------------||
--------------------||




Duration Legend
---------------
W - whole
H - half
Q - quarter
E - 8th
S - 16th
T - 32nd
X - 64th
. - note dotted
|-n-|  - n-tuplets
Login or Register to remove this ad.

2 comments on Cross-Examination Allegro

More Phoenix Wright-goodness

More Phoenix Wright-goodness is always appreciated.
Apart from that, this could not have been more perfect for me. Lots of right hand treble-finger-training, getting to learn more of the PW-music and the song is generally easy even for a beginner like me. To top it off there is a helluvalot to practice to.

PROTIP: Make sure to add that this is the 2001-version of the song (meaning the track is actually called Examination ~ Allegro 2001), and it is from JFA.

jfa is the second game but

jfa is the second game but this song is from the first game