Login or Register to remove this ad.

Age, Regret, Reward (Phoenix Wright: Ace Attorney) Bass Tab

Submitted: Jun 01, 2008 by Shadoninja (Last updated: Jun 01, 2008)

3
Average: 3 (1 vote)
Download | Listen
Game: Phoenix Wright: Ace Attorney
Composer(s): Naoto Tanaka, Masakazu Sugimori
Style: Transcription
Series: Phoenix Wright

AutoScroll: Slow | Medium | Fast
Game: Phoenix Wright: Ace Attorney
Song Name: "Age, Regret, Reward"
Composer:Sugimori Masakazu
Instrument: Bass Guitar
Tuning: Standard EADG



           Main Riff                      Main Riff(Variation)                     
G|------------0----2---------------|------------0----2--------------|
D|---2----2--------------------0---|---2----2----------------0------|
A|----------------------2----------|--------------------------------|
E|---------------------------------|--------------------------------|



           Second Riff                          
|----------------------------------------------|
|----2-----2-----------------------------------|
|----------------2-----2--3-----3----0---2-----|
|----------------------------------------------|


               Second Riff(Variation)
|-------------------------------------------------||
|-----2-----2----------------------------------0--||
|-----------------2-----2--3-----3----------------||
|-------------------------------------------------||



Order:

(Main Riff
Main Riff Variation) x2

(Second Riff
Second Riff Variation)x2


Tabbed by: Shadoninja
Login or Register to remove this ad.