Login or Register to remove this ad.

Psyche Lock 2007 (Apollo Justice: Ace Attorney) Guitar Tab

Submitted: Apr 20, 2008 by Strummer (Last updated: Apr 20, 2008)

3
Average: 3 (1 vote)
Download | Listen
Game: Apollo Justice: Ace Attorney
Composer(s): Toshihiko Horiyama, Hideki Okugawa
Style: Transcription
Series: Phoenix Wright

AutoScroll: Slow | Medium | Fast
Psyche Lock 2007
Tabbed by: Strummer

e--------------5----3------ x4
B---------5-3-----5----5-3-
G-2--4-5-------------------
D--------------------------
A--------------------------
E--------------------------

e--------------3----1------ x2
B---------3-1-----3----3-1-
G-0--2-4-------------------
D--------------------------
A--------------------------
E--------------------------

e--------------5----3------ x2
B---------5-3-----5----5-3-
G-2--4-5-------------------
D--------------------------
A--------------------------
E--------------------------

e--------------3----1------ x2
B---------3-1-----3----3-1-
G-0--2-4-------------------
D--------------------------
A--------------------------
E--------------------------

e--------------5----3------ x4
B---------5-3-----5----5-3-
G-2--4-5-------------------
D--------------------------
A--------------------------
E--------------------------

e--------------3----1------ x2
B---------3-1-----3----3-1-
G-0--2-4-------------------
D--------------------------
A--------------------------
E--------------------------

e--------------5----3------ x2
B---------5-3-----5----5-3-
G-2--4-5-------------------
D--------------------------
A--------------------------
E--------------------------

e--------------3----1------ x2
B---------3-1-----3----3-1-
G-0--2-4-------------------
D--------------------------
A--------------------------
E--------------------------

e--------------5----3------ x4
B---------5-3-----5----5-3-
G-2--4-5-------------------
D--------------------------
A--------------------------
E--------------------------

e--------------3----1------ x2
B---------3-1-----3----3-1-
G-0--2-4-------------------
D--------------------------
A--------------------------
E--------------------------

Repeat forever.
Login or Register to remove this ad.