Login or Register to remove this ad.

Ema Skye's Theme (Apollo Justice: Ace Attorney) Guitar Tab

Submitted: Apr 16, 2008 by Strummer

3
Average: 3 (4 votes)
Download | Listen
Game: Apollo Justice: Ace Attorney
Composer(s): Toshihiko Horiyama, Hideki Okugawa
Style: Transcription
Series: Phoenix Wright

AutoScroll: Slow | Medium | Fast
Ema Skye ~ Scientic Detective
Tabbed by: Strummer

e---------------7-7h8-7----7---------
B-8-8----7h8-10--------------10-8-10-
G------------------------------------
D------------------------------------
A------------------------------------
E------------------------------------

e---------------7-7h8-7-----8p7------
B-8-8----7h8-10----------10-----10---
G------------------------------------
D------------------------------------
A------------------------------------
E------------------------------------

e---------------7-7h8-7--------------
B-8-8----7h8-10------------10-8-10---
G------------------------------------
D------------------------------------
A------------------------------------
E------------------------------------


e---------------7-7h8-7----10-8-7-8--
B-8-8----7h8-10----------------------
G------------------------------------
D------------------------------------
A------------------------------------
E------------------------------------

e----13----11------- x2
B-13----13----13-14-
G-------------------
D-------------------
A-------------------
E-------------------

e-----------------------------
B-11p9-10p9 11-9-9----8-8-8-8-
G-----------------------------
D-----------------------------
A-----------------------------
E-----------------------------
Login or Register to remove this ad.

2 comments on Ema Skye's Theme

How do I download this?

How do I download this?

Right-click the "download"

Right-click the "download" link and choose "save as..."