Ads

Shop (Legend of Zelda: Ocarina of Time) Guitar Tab

Submitted: Sep 30, 2007 by archard

4.666665
Average: 4.7 (18 votes)
Download | Listen
Game: Legend of Zelda: Ocarina of Time
Composer(s): Koji Kondo
Style: Transcription
Series: Legend of Zelda

AutoScroll: Slow | Medium | Fast
Shop
The Legend of Zelda: Ocarina of Time
Composed by Koji Kondo

8/4/06

e--3-3---1-3----------------
B------3---------3-1-0------
G----------------------0----
D------------------------3-0
A---------------------------
E---------------------------

e--------------------------------------------
B--1--1-1---------1---------1-1-0--0-0-------
G---------2-2-0-----0-0-2-2------------2-2-0-
D--------------------------------------------
A--------------------------------------------
E--------------------------------------------

e-----------------------------------------------------
B------------0--0-0---------0---------0--1--1-1--1-1-1
G--0-2-2-3-3--------2-2-0-----0-0-2-2-----------------
D-----------------------------------------------------
A-----------------------------------------------------
E-----------------------------------------------------
Login or Register to remove this ad.

29 comments on Shop

HA! awesome. i smiled while

HA! awesome. i smiled while playing it, brought back memories. awesome game, awesome tab.

lol that was the best. sooo

lol that was the best. sooo easy to play i love the intro bit. oot is truly the best game

Heck yes it is!!! lol! cool

Heck yes it is!!! lol!

cool tab, easy too

First time through, it

First time through, it didn't make sense to me.
Second time, I started to recognize it
Third time, I totally get it

Easy tab, and it's a fun one! It makes me giggle! Thanks, it's a great tab!

Dude, that was great! It

Dude, that was great! It ultra easy to play, and it made me smile!

dude it brought bak awsome

dude it brought bak awsome memories it made me smile big by the way could u add the song where u into homes?

Post your request in the

Post your request in the forum Link, please.

nice tab man,made me go back

nice tab man,made me go back and play the game again =)

Very nice, but if you listen

Very nice, but if you listen to the midi there is abit after it and i think this is the tab for it. All made by me =) lol


---------------------------------------------------------------
--1-3-5-6-1-----6-6-5-3-5-1-----------0-------3-3-1-0-1-1-1-1-1
------------2-2-------------0--0-0-2-3--2-0-0------------------
---------------------------------------------------------------
---------------------------------------------------------------
---------------------------------------------------------------

Wonderful! That last bit

Wonderful! That last bit that Nathan added finishes it perfectly!

I agree! Add Nathan's part

I agree! Add Nathan's part in and personally I think you should add another 0 in your last line right...

e-----------------------------------------------------
B------------0--0-0---------0---------0-0-1-1-1--1-1-1
G--0-2-2-3-3--------2-2-0-----0-0-2-2-----------------
D-----------------------------------------------------
A-----------------------------------------------------
E-----------------------------------------------------

Like that. But maybe that's just play style.

Very nice song i like it

Very nice song i like it very much all the old times come back in my head :$

Amazing!! Nice job!!

Amazing!! Nice job!!

there's an G -2- too much,

there's an G -2- too much, at the last line , the last G-2-, and theres a lot missing, the chorus comes nect , but is a good tab;)

it doesnt sound right when i

it doesnt sound right when i play it but i might be playin it rong...

Well you need to play it the

Well you need to play it the way it stands there.. I know I am explaining it kind of weird right now, but think back to the game, and play it some times, you will soon get it.

lovely

lovely

Wow,i havent heard this in a

Wow,i havent heard this in a while. Im thinkig about turning on my gamecube and playing ocarina of time again! Great tab, it made me smile

dude, awesome, i love this

dude, awesome, i love this song and its so easy to play, awesome site! keep it up!

The second version of the

The second version of the part that Nathan added

|-----------------------------------------------1-1-0---0----
|--1-3-5-6-1-----6-6-5-3-5-1-----------0--------------3------
|------------2-2-------------0--0-0-2-3--2-0-0---------------
|------------------------------------------------------------
|------------------------------------------------------------
|------------------------------------------------------------

|----------------------------

|-----------------------------------------------1-1-0---0----

|--1-3-5-6-1-----6-6-5-3-5-1-----------0--------------3------

|------------2-2-------------0--0-0-2-3--2-0-0---------------

|------------------------------------------------------------

|------------------------------------------------------------

|------------------------------------------------------------

Oh my god i am sorry i dont

Oh my god i am sorry i dont know how to make clean tabs ,and sorry for the double-posting

it reminds me of that big

it reminds me of that big hairy guy in the bazaar

This brought back so many

4

This brought back so many memories, and how I bought all these items I needed

ah, good times, good times.

ah, good times, good times. nice tab!

Excellent tab could have put

Excellent tab could have put more because I zipped through this fast. When I play it I think of buying Deku sticks & Deku nuts at the Kokiri's local shop!

Great, for the most part.

4

Great, for the most part. Something seems a bit off in the transitions from 0's to 2's, though...

man you are f-ing awsesome

man you are f-ing awsesome

lol's dude

I'm in Iraq right now and every time someone has to come into my room, if I'm holding my guitar, I'll play this the whole time to add that sort of shop-like feel.
Brings smiles to the one's who've played any Zelda's that feature this song lol