Ads

Market (Legend of Zelda: Ocarina of Time) Guitar Tab

Submitted: Sep 30, 2007 by archard

4.68182
Average: 4.7 (22 votes)
Download | Listen
Game: Legend of Zelda: Ocarina of Time
Composer(s): Koji Kondo
Style: Transcription
Series: Legend of Zelda

AutoScroll: Slow | Medium | Fast
Market
The Legend of Zelda: Ocarina of Time
Composed by Koji Kondo

8/4/06

e------------------0-2-3----------------------------
B--3-3-3-1-0-1-3-3-------3-3-3-3-1-0-1-3-1-0-1-0----
G------------------------------------------------2-0
D---------------------------------------------------
A---------------------------------------------------
E--------------------------------------------------- x4

e---------------------------------------------------------------------
B------------0--------0-1-0-----0-----------------0--------0-1-3-1-0--
G--2-2-2-0-2----2---2-------2-0---2-----2-2-2-0-2----2---2-----------2
D---------------------------------------------------------------------
A---------------------------------------------------------------------
E---------------------------------------------------------------------

e---------------------------------------------------------------
B------------0----------1-0-----0-----------------0--------0-1-3
G--2-2-2-0-2----2---2-------2-0---2-----2-2-2-0-2----2---2------
D---------------------------------------------------------------
A---------------------------------------------------------------
E---------------------------------------------------------------
Login or Register to remove this ad.

15 comments on Market

Good job!

Good job!

This song is just so lovely

This song is just so lovely =) nice work!

Dude plz explain to me y the

Dude plz explain to me y the 2nd and 3rd line does not sound so correctly? my guitar is in tune its just that in the game or on youtube ppl play it perfectly like the game is urs any different?

nvm dude i re listened to it

nvm dude i re listened to it and ur right i just have to get the rythym right

It seems to me that at the

It seems to me that at the first line where you have four 3's lined up on the B string that there's one extra 3 that shouldn't be there... So basically I'm thinking it should be only three 3's. I could be wrong, but it sounds better to me that way

brilliant. the rythym flowed

brilliant. the rythym flowed so naturally through my fingers as i played it.

It sounds absolutely

It sounds absolutely brilliant, and isn't too hard to play. Well done :)

great tab

4

great tab

Seems like you needs some

3

Seems like you needs some hammer-ons and pull-offs in the intro. and the 2nd & 3rd lines are slightly confusing until you listen to the midi but otherwise a decent tab

epic

5

dude just too freaking kool
brought back memories of the good old days

Great

5

Just.......... Amazing

flippin amazing

5

flippin amazing

this has nothing to do with

this has nothing to do with the song but i fucking love this game!!! bomchu bowling ftw!!!!!

this tab is @#$&#!# amazing!!!!!!!!!!!!!!!!

this tab is @#$&#!# amazing!!!!!!!!!!!!!!!!

Una muy buena canción

5

Una muy buena canción perfecta