Kakariko Village (Legend of Zelda: Ocarina of Time) Guitar Tab

Submitted: Sep 30, 2007 by archard (Last updated: Sep 12, 2009)

4.666665
Average: 4.7 (42 votes)
Download | Listen
Game: Legend of Zelda: Ocarina of Time
Composer(s): Koji Kondo
Style: Transcription
Series: Legend of Zelda

AutoScroll: Slow | Medium | Fast
Kakariko Village
The Legend of Zelda: Ocarina of Time
Composed by Koji Kondo

8/3/06

Intro

e----------------------------------1-----------------
B--------3-------------------------------------------
G------3---3--------0-3-0------0-3---3-0--------2----
D----3-------3----0-------0-------------------3---3--
A--1-------------------------3--------------3-------3
E---------------3-------------------------1----------

Main Theme

e----------------1-------------------1-----1-3-------3-1------------------
B----------3-------------------3---------------------------3---3---3---1--
G----3---------3---------3---------3-------------2-----------------------3
D--3-----3-------------3-----3--------------------------------------------
A-------------------------------------------------------------------------
E------------------------------------------------------------------------- x2

e------------------------------------------------------------1--------------
B------------1--------------------------------------1------------4---3---1--
G--3-3---2------3-------------------------3-3---2------3-------------------3
D-------------------3---1---0-1---3-0----------------------3----------------
A---------------------------------------------------------------------------
E---------------------------------------------------------------------------
Login or Register to remove this ad.

44 comments on Kakariko Village

To make this more

To make this more complete... the very last line could also include the harmony, which would read as follows:

D- x, 1, 1, 1, 0, 0, A- 3, 3, 3, 1, D- 1, 1, 1, 1, 0, 0, G- 4, 0, D- 3, 1, 0

Happy Strumming!

I really liked this song,

I really liked this song, simple, and good. Tab is perfect too!

I like this one. I tryed

I like this one. I tryed playing it one step lower and it worked.

It just gets a bit high for

It just gets a bit high for me :/ (i play trumpet)

cccccccccccccoooooooooooooooo

cccccccccccccooooooooooooooooooolllllllllllllllllll

It was a decent tab I must

It was a decent tab I must admit bro. But I think my version is a little better, and easier, well maybe thats just me though, my version doesn't have the intro. But anyways this tab is AMAZING! Keep up the good work bro.
And it is totally complete.

Also some of you might want

Also some of you might want to try this version:


e---------------------------------------------------------
B---------------------------------------------------------
G----0---4--0--7------0---4--0--7----7-9---9-7--4--4-4-2-0
D--0---0------------0---0----------------4----------------
A---------------------------------------------------------
E---------------------------------------------------------X2


e---------------------------------------------------------
B---------------------------------------------------------
G--0-0---2-0---------------0-0---2-0---7--5--4--2-0-------
D------4-----0--------0--------4-----0--------------------
A---------------3-2-3---2---------------------------------
E---------------------------------------------------------

sadly it doesn't have an intro :(

Its a bit to difficult to

Its a bit to difficult to play!!

the one tabbed before is much better!

good atempt

Its a nice try but the one before has a much more better rhythm than this one.

dude man this tab is amazing

dude man this tab is amazing

thats nice

thats nice

wow good job i learned this

wow good job i learned this like 10 min and hadnt played loz in like 3 years still new rythem

i think the last armonic...

i think the last armonic... doesn't work very good...
i'm not expert but i think it could be... so..

e-----------------------------
B---------1-------------------
G-------2---2-----------------
D-----3-------3---------------
A-----------------------------
E---0-------------------------

Try with this...

i find it more comfortable

i find it more comfortable to play the melody like this, 
and it plays through the whole song

e----------------------------------------------------
B--------3-------------------------6-----------------
G------3---3----------3----------3---3----------2----
D----3-------3------5---5------5-------5------3---3--
A--1--------------5-------5--3--------------3-------3
E---------------3-------------------------1----------

Hey thats pretty good man.

Hey thats pretty good man. It is alot more comfortable to play it like this. Thanks!

it sounds about right, I

it sounds about right, I play it a bit differntly though, all in all however good job

wow this is a nice tab. easy

wow this is a nice tab. easy for me to play since im a beginner. great job.

Thief's version sounds

Thief's version sounds better because the background is a bunch of arpeggios so the notes need to be on different strings, but it's very difficult to play imo. However if you capo the first fret and modify one part back to the original very slightly...

e----------------------------------1-----------------
B--------3-------------------------------------------
G------3---3----------3----------3---3----------2----
D----3-------3------5---5------5-------5------3---3--
A--1--------------5-------5--3--------------3-------3
E---------------3-------------------------1----------

It becomes rather easy.

wicked!!

5

wicked!!

to tell the truth ur way is

to tell the truth ur way is vary hard to do the way i learned it was easyer but the one thing i like is that you have the back round part

e----------------------------------1-----------------
B--------3-------------------------------------------
G------3---3--------0-3-0------0-3---3-0--------2----
D----3-------3----0-------0-------------------3---3--
A--1-------------------------3--------------3-------3
E---------------3-------------------------1----------

i really thank u for that now me and my friend can play the hole some over and over agean thanks =D

Awesome! Love it!

5

Awesome! Love it!

This is an amazing tab

This is an amazing tab excellent work! :D

Way to go this was very

5

Way to go this was very simple to play but LOZ is like my favorite game series ever so thank you so much :DD

comp with capo: First

comp

with capo:

First play this 6 times (2 as intro and 2 with the melody x 2)
-------------------------------------------------
-------2-----------------------5-----------------
-----2---2---------2---------2---2---------1-----
---2-------2-----4---4-----4-------4-----2---2---
-0-------------4-------4-2-------------2-------2-
-------------2-----------------------0-----------

Then play this 3 times
-------------------------------------------------
-----3---3---------------------------------------
---2---2---2-----------------2---2---------------
-0---------------2---2-----2---2---2-----4---4---
---------------2---2---2-0-------------4---4---4-
-------------0-----------------------2-----------

-------------------------|-----------------------
-------------------------------------------------
-----0---0-------------------2---2-------0---0---
---4---4---4-----2---2-----2---2---2---2---2---2-
-2-------------2---2---2-0-----------0-----------
-------------0-----------|-----------------------
                         |skip this part the last time.
                         |start over

But hey, good tab there! 100% accurate melody with the easiest way to play.
(not the comp though...)

It is a great tab. I just

It is a great tab. I just wish there was a Lost Woods Tab. Someone should do a tab of this sort and throw in some bass strings so it doesn't sound so plain.

Wow

5

Wow. Thats all I can say.

Wow

5

Wow. Thats all I can say.

Wow

5

As always you please me Archard!
You are a god among men!
Great Tab 5/5!

100% AWESOME

5

100% AWESOME

does this sound alot like windfal

is it just me or does this song sound like a slow version of windfall island

You got it backwards...

You got it backwards... Ocarina of Time came first.

Not bad! Now if only

3

Not bad! Now if only there was a Hyrule Field tab.

I was actually just about to

I was actually just about to start that. I already finished your Spirit Tracks request and thought I should do another zelda overworld theme.

A bit of a correction

I play it completely differently..
For starters I play with all the strings half a step down,
and the chords I play are this:

x2444x
4664xx
x4647x
2x4320

^That's with the thumb on the low E..

(If this looks weird, copy it into Notepad)

I play it like this:

D#-----------------------------------------------0--------
A#--------4-------------------------7----------2---2------
F#------4---4----------4----------4---4-------------3-----
C#----4-------4------6---6------6-------6----4------------
G#--2--------------6-------6--4---------------------------
D#---------------4-------------------------2--------------

And that's just the intro,
then it goes into something I also play differently:

D#----------------------------------------------------------
A#----------------------------------------------------------
F#----4-4----3-3----4-4----5-5----4-4----3-3----4-4----4-4--
C#---2-2-2--4-4-4--4-4-4--6-6-6--6-6-6--4-4-4--4-4-4--4-4-4-
G#----------------2-------------4-------------2------2------
D#--0------2-------------4-------------2--------------------

There's actually another part that no one has included,
but I can't find a way to comfortably play it(and it would also require a lower tuning),
so I haven't included it(I figure that's no big loss to anyone since it hasn't already been posted anyways, and these two parts will make it easy to play)

As far as I can tell, the notes I've provided are 100% accurate, however there may be a more simple or more comfortable way to play it. You can also feel free to play it without tuning your guitar down(though it will not sound the same as the recording unless you do).
Ta ta~
-Alex (azimuth457 from Ultimate-Guitar.com)

Hi azimuth457, welcome to

Hi azimuth457, welcome to GameTabs :-)

I edited your post to have <pre> and </pre> around the tabs. That's how you get it to be formatted correctly on this site.

Well, that'll be useful if you stick around, anyway.

Thanks, I was wondering how

Thanks, I was wondering how people did that. I enjoy videogame music, so I will look around to see where I can help more later.

Nice one!

Sounds perfect. No mistakes, nice tab.

This Tab

5

This song sounds me familiar
like kakariko village of zelda of snes

This tab (not the song) is exactly the same like the one in snes
Nice tab...
but why... ;O XO

it sounds perfect

5

it sounds perfect

I don't get it, where's the

I don't get it, where's the rest of the accompaniment? The first part sounds good, but it's just the intro, right?

Looks like nobody has made a

Looks like nobody has made a tab for the accompaniment, there is one for the link to the past version on this site by auriplane. But if you want the ocarina of time version check this link and note the DGCFAD tuning

taken from here http://cruiseelroy.net/2008/07/ocarina-music-5/

Cool, thanks!

Cool, thanks!

Cool

Cool

Another great tab from Richard Schaefer

5

Another one at my level of play...
Thanks!