Ads

House (Legend of Zelda: Ocarina of Time) Guitar Tab

Submitted: Sep 30, 2007 by archard (Last updated: Jul 12, 2013)

4.285715
Average: 4.3 (7 votes)
Download | Listen
Game: Legend of Zelda: Ocarina of Time
Composer(s): Koji Kondo
Style: Transcription
Series: Legend of Zelda

AutoScroll: Slow | Medium | Fast
E||-------------------|-----5-----4-----5-----4--|-----5-----4-----5--5--5--|
B||-------------------|-----7-----5-----7-----5--|-----7-----5-----7--7--7--|
G||-------------------|--------------------------|--------------------------|
D||-------------------|--------------------------|--------------------------|
A||-------------------|--------------------------|--------------------------|
E||-------------------|--------------------------|--------------------------|

-----0-----------0--------|-----0-----------0--0--0--|
-----8-----7-----8-----7--|-----8-----7-----8--8--8--|
-----------7-----------7--|-----------7--------------|
--------------------------|--------------------------|
--------------------------|--------------------------|
--------------------------|--------------------------|

-----------0--------------|--------------------------|--0----------------|
-----6-----------6-----5--|-----6-----5-----6--6--6--|-------------------|
-----7-----5-----7-----5--|-----7-----5-----7--7--7--|--6----------------|
--------------------------|--------------------------|-------------------|
--------------------------|--------------------------|-------------------|
--------------------------|--------------------------|-------------------|

--L-----------------|-----5-----4-----5-----4--|-----5-----4-----5--5--5--|
--------------------|-----7-----5-----7-----5--|-----7-----5-----7--7--7--|
--L-----------------|--------------------------|--------------------------|
--------------------|--------------------------|--------------------------|
--------------------|--------------------------|--------------------------|
--------------------|--------------------------|--------------------------|

-----0-----------0--------|-----0-----------0--0--0--|
-----8-----7-----8-----7--|-----8-----7-----8--8--8--|
-----------7-----------7--|-----------7--------------|
--------------------------|--------------------------|
--------------------------|--------------------------|
--------------------------|--------------------------|

-----------0--------------|--------------------------|--0----------------|
-----6-----------6-----5--|-----6-----5-----6--6--6--|-------------------|
-----7-----5-----7-----5--|-----7-----5-----7--7--7--|--6----------------|
--------------------------|--------------------------|-------------------|
--------------------------|--------------------------|-------------------|
--------------------------|--------------------------|-------------------|

--L-----------------|-----5-----4-----5-----4--|-----5-----4-----5--5--5--|
--------------------|-----7-----5-----7-----5--|-----7-----5-----7--7--7--|
--L-----------------|--------------------------|--------------------------|
--------------------|--------------------------|--------------------------|
--------------------|--------------------------|--------------------------|
--------------------|--------------------------|--------------------------|

-----0-----------0--------|-----0-----------0--0--0--||
-----8-----7-----8-----7--|-----8-----7-----8--8--8--||
-----------7-----------7--|-----------7--------------||
--------------------------|--------------------------||
--------------------------|--------------------------||
--------------------------|--------------------------||
Login or Register to remove this ad.

10 comments on House

That's nice, but where is

That's nice, but where is the main song?
This is the background.

No!! Just no.

No!! Just no.

:(

:(

Get the main song plz.

Get the main song plz. otherwise the background rocks

this is only background

this is only background crappy :/
i just got the game on my wii man come on

yo, the backgrounds nice,

yo, the backgrounds nice, but theres a lot of tabs on here so give the guy a rest, im sure he'll come up with one soon. so don't get snippy... or else maybe he'll stop making tabs and we'll be SOL

i think the bass notes is

i think the bass notes is wrong... it gives a m feeling you know..

but I like the fact that someone tabbed this ^^

... i don't see anything

5

... i don't see anything wrong with what he tabbed.... he just didn't tab the main part... whatever

where is the main theme?!?!!

where is the main theme?!?!!

where is themain theme?

this is only the back ground music, where is the main theme?!?!