Ads

Song of Healing (Legend of Zelda: Majora's Mask) Guitar Tab

Submitted: Sep 30, 2007 by archard

4.70909
Average: 4.7 (55 votes)
Download | Listen
Game: Legend of Zelda: Majora's Mask
Composer(s): Koji Kondo, Toru Minegishi
Style: Transcription
Series: Legend of Zelda

AutoScroll: Slow | Medium | Fast
Song of Healing

The Legend of Zelda Majora's Mask

Composed by Koji Kondo



7/21/06

e---------------------------
B--0-------0-------0--------
G----2-------2-------2------
D------3-------3-------2-0-2
A---------------------------
E--------------------------- x2

e---------------------------
B---------------------------
G---------------------------
D--3-------3-------3-2------
A----3-2-----3-2-------2-0-2
E---------------------------

e-------------------------
B----------------------0--
G------------------------0
D--3-------3-------3-2----
A----3-2-----3-2----------
E-------------------------

e-----------------------
B--------3-3-3-------1--
G--2-2-2-------0-0-0---0
D-----------------------
A-----------------------
E-----------------------

e---------------------
B---------------------
G--------3-3-3-----2--
D--3-3-3-------2-0---2
A---------------------
E---------------------

e-----------------------
B--------3-3-3-------1--
G--2-2-2-------0-0-0---0
D-----------------------
A-----------------------
E-----------------------

e----------------------0
B-----------1-3----0-3--
G----0-2--3------2------
D--3--------------------
A-----------------------
E-----------------------
Login or Register to remove this ad.

42 comments on Song of Healing

Great! I love this song and

Great! I love this song and it sounds perfect!!

Pretty good. I always played

Pretty good.
I always played G|--6-4-0--6-4-0--6-4-0

Yeah, that's how I've always

Yeah, that's how I've always played it too, but hey, this way works.

Love this song, it's

Love this song, it's slightly eerie tone to it, it's awesome!

Awesome song, it's very

Awesome song, it's very catchy.

it'll sound better if you

it'll sound better if you play it higher. start with:
e|-------------------------------------------
B|-12-10-----12-10----12-10------------------
G|-------10--------10-------9-7-9------------

sorry, messed up the

sorry, messed up the formatting. it's B|12-10 G|10 twice then B|12-10 G|9-7-9

I fixed it for you, but

I fixed it for you, but please see the link below the submit comment button for formatting rules.

PLAY THE INTRO BACKWARDS

PLAY THE INTRO BACKWARDS SOUNDS LIKE THE LOST WOODS

yes because 4=0 for the g

yes because 4=0 for the g string to b string

cause thats what it is! =0

cause thats what it is! =0

That is pretty interesting!

That is pretty interesting! I never noticed that.

That's because the notes of

That's because the notes of the ocarina are arranged like this.

Up=D Left=B Right=A Down=F A=D

It's as simple as that.

y i could never found a

y i could never found a complete partiture for this one?!?
>_

SIIIICK. just got my first

SIIIICK. just got my first guitar, this is the onyl song i can play atm, but i feel so proud of myself lol :D

Very awesome, all the other

Very awesome, all the other tabs i've found have been so half assed. thank you so much for this tab.

The intro sounds better

The intro sounds better like this:

e-----------------------------
B--0-----0-----0-----------
G----2-----2-----2---------
D------3------3-----3-5-3-
A-----------------------------
E-----------------------------

Are you tone deaf?

Are you tone deaf?

nah

Sorry, but that is terrible

This sounds really good, my

This sounds really good, my friend and i love this song, good job!!!!!!!!!! =3

awesome! i love this song!

awesome! i love this song! man it took me so long to actually find a good tab for this song...

grat job! XD

I love it!

5

I love it!

AWESOME

5

AWESOME

One of the best games ever.

5

One of the best games ever.

Why do people insist on

Why do people insist on thinking "this sounds better". It's an accurate fucking tab, if you don't like it go write your own.

lol no kidding... if you

5

lol no kidding... if you think yours sounds better... then fucking submit your own goddamn tab... if it makes it and gets a higher rating then you were right... if it doesn't... then shut the hell up

good tab nice song

5

good tab nice song

Slick i agree with Gren

Slick i agree with Gren about the tone, Very good job man *high five*

Who ever thinks that this

Who ever thinks that this song is not awesome is crazy!
Nice job.

Re: Song of Healing

lol.my little brother is always trying to play the song. good job archard.<(^_^)>

PERFECT!!!

5

it's easy to play and it sounds great.

nice

5

dude i seiusly think ur the best tabber on this site pretty much every game tab i wanted youve made one, from zelda to banjo-kazooie

good tabber

but best tabber on the site goes to...

kanukibear, doomofallfires or shru

quality over quantity my friend

This was awesome! thanks!

This was awesome! thanks!

very cool tab thank you ^^ i

very cool tab thank you ^^ i think this is the est theme of majorask mask :P

great

5

when i was about 9, i played Majora's Mask and i heard the song of healing, and had nightmares from it.
this song is awesome!

Gives me the creeps every

Gives me the creeps every time I play cause all I can think about is BEN. But great tab by the way!

AWESOME!

5

This is really nice! i love it ;)

tuning

what tuning is used in this tab

If you look really hard at

If you look really hard at the tab, it says what it is 7 times!

THIS IS AMAZING

5

Thank you soooo much

Intro Suggestion

4

e------------------------------
B---0--------0--------0--------
G-----2--------2--------2------
D-------3--------3--------2-0-2
A-3--------3--------3----------
E------------------------------