Ads

Main Theme (Super Mario 64) Guitar Tab

Submitted: Nov 20, 2008 by bluepowder (Last updated: Nov 14, 2009)

4
Average: 4 (2 votes)
Download | Listen
Game: Super Mario 64
Composer(s): Koji Kondo
Style: 2 or more instruments, Transcription
Series: Mario

AutoScroll: Slow | Medium | Fast
#----------------------------------PLEASE NOTE---------------------------------#
#This file is the author's own work and represents their interpretation of the #
#song. You may only use this file for private study, scholarship, or research. #
#------------------------------------------------------------------------------#


Date: 01 Oct'05


Super Mario 64 (Nintendo 64)
Copyright © Nintendo 1996

Super Mario 64 Soundtrack
Track 05 - "Main Theme" originally composed by Koji Kondo


Tabbed by Raphael Müller ([email protected])

---------------------------------------------------------------------------


I arranged the two main melody lines of this song for two guitars. I haven't tabbed the bass line yet, but I hope to get
to it soon. Enjoy!
 

Playing sequence:	GUITAR 1: 2x Sec 1.1|Sec 1.2|Sec 1.3|repeat from beginning
			
			GUITAR 2: Intro|Sec 2.1|Sec 2.2|Sec 2.3|Sec 2.4|repeat from Sec 2.1


Intro:
[----------10-----------------------]
[-13-10-13---13---------------------]
[---------------9-10-11-12--12---12-]
[-----------------------------------]
[-----------------------------10----]
[-----------------------------------]

Section 1.1:
[-----------3--5-3---------------------------------------------------------------------|
[-3-4-5-4-5--------------------------------------------8--------8--------8--8--10-8----|
[-------------------5-------------5--7-5--------------------------------------------7--|
[-----------------------5-6-7-6-7---------7----7-5-4-5----5-4-5----5-4-5---------------|
[--------------------------------------------------------------------------------------|
[--------------------------------------------------------------------------------------|

|-----------3--5-3--6--------------8--10-8---------------------------------------]
|-3-4-5-4-5-------------9--10-9-10----------10---9--8-7-8----8-7-8---------------]
|-----------------------------------------------------------------------7/9-9-5--]
|---------------------------------------------------------5--------5--5----------]
|--------------------------------------------------------------------------------]
|--------------------------------------------------------------------------------]

Section 2.1:
[irregular funky picking									]
[-----------------------------------------------------------------------------------------------|-------8-]
[-8--8---8-8--10--10---10-10--8--8---8-8--6--6---8-8--8--8---8-8--10--10---10-10--8--8---8-8--8-|-8-10----]
[-9--9---9-9--10--10---10-10--9--9---9-9--7--7---7-7--9--9---9-9--10--10---10-10--7--7---7-7--9-|---------]
[-----------------------------------------------------------------------------------------------|---------]
[-----------------------------------------------------------------------------------------------|---------]
[-----------------------------------------------------------------------------------------------|---------]

Section 2.2:
[-15\\----13\\------------8--10*\\--------10-12-----------11-10----------------------------------]
[-----------------8---10--------------13---------13---13---------13----------------13--11-12--13-]
[---------------------------------------------------------------------12--12--12-----------------]
[------------------------------------------------------------------------------------------------]
[------------------------------------------------------------------------------------------------]
[------------------------------------------------------------------------------------------------]

Section 2.3:
[----13-15-16-17---16-15---14-13--15---------13-15-16-17---16-15---14-13---------|
[-17----------------------------------17--17------------------------------17--13-|
[--------------------------------------------------------------------------------|
[--------------------------------------------------------------------------------|
[--------------------------------------------------------------------------------|
[--------------------------------------------------------------------------------|

|-17-17-16-16-15-15-14-14-13--15--12----17-17-16-16-15-15-14-14-13--12------]
|-----------------------------------------------------------------------13--]
|---------------------------------------------------------------------------]
|---------------------------------------------------------------------------]
|---------------------------------------------------------------------------]
|---------------------------------------------------------------------------]

Section 1.2:
[--------------------------------------------------------|
[-13---13-12---12-10--12-------13---13-12---12-10--------|
[-------------------------12-----------------------12--9-|
[--------------------------------------------------------|
[--------------------------------------------------------|
[--------------------------------------------------------|

|-------------------------------------------------------------------------]
|-13-13-13-13-12-12-11-11-10--12--------13-13-13-13-12-12-11-11-10--------]
|---------------------------------12--------------------------------12--9-]
|-------------------------------------------------------------------------]
|-------------------------------------------------------------------------]
|-------------------------------------------------------------------------]

Section 2.4:
[-8---------8-------------------------------8---------8------------------------------|
[------11--------11---10---------10--------------11--------11---10-10-10-10-9--------|
[---9---------9--------------8----------8-----9---------9-----------------------12\\-|
[------------------------10---------10-----------------------------------------------|
[------------------------------------------------------------------------------------|
[------------------------------------------------------------------------------------|

|-8---------8-------------------------------8---------8------------------8-11---12\\-]
|------11--------11---10---------10--------------11--------11---10-10-10-------------]
|---9---------9--------------8----------8-----9---------9----------------------------]
|------------------------10---------10-----------------------------------------------]
|------------------------------------------------------------------------------------]
|------------------------------------------------------------------------------------]

Sec 1.3:
[--------------------------------------------------------------------------|
[--------------------------------------------------------------------------|
[--------------------------------------------------------------------------|
[-10----8---10----8---7----8---7----8---10----8---10----8---14-14-14-14-13-|
[----7---------7--------5--------5---------7---------7---------------------|
[--------------------------------------------------------------------------|

|-------------------------------------------------------------------------------]
|-------------------------------------------------------------------------------]
|-------------------------------------------------------------------------------]
|-10----8---10----8---7----8---7----8---10----8---10----8---14-14-14-14-13---14-]
|----7---------7--------5--------5---------7---------7--------------------------]
|-------------------------------------------------------------------------------]

---------------------------------------------------------------------------


Notation:

\\ - Slide neck down
Login or Register to remove this ad.