Ads

Cool Cool Mountain (Super Mario 64) Guitar Tab

Submitted: Feb 29, 2008 by cgseth (Last updated: Oct 04, 2009)

5
Average: 5 (9 votes)
Download | Listen
Game: Super Mario 64
Composer(s): Koji Kondo
Style: Arrangement, Fingerstyle
Series: Mario

AutoScroll: Slow | Medium | Fast
                              Cool Cool Mountain                                


                                                                      Koji Kondo
Guitar



     |---3---|       |---3---|          |---3---|                    
     E   E   E  Q    E   E   E  Q       E   E   E  Q    E  E  E  E   
E||--3p--2h--3--5--------------------|------------------------------|
B||------------------6p--5h--6--8----|--5p--4h--5--6----3-----------|
G||----------------------------------|------------------------------|
D||----------------------------------|------------------------------|
A||----------------------------------|------------------------0--2--|
E||----------------------------------|---------------------3--------|


    Q    E  E  E  E  E  E     Q    Q    Q    Q       Q    E  E  E  E  E  E   
|---0-------0-----3--5--3--|----------------------|-------------------------|
|--------------------------|----------------------|----------------1--3--1--|
|*-------------------------|--5-------------------|--2-------2--------------|
|*-------------------------|----------------------|-------------------------|
|---3----------3-----------|--3---------3---------|-------3-----------3-----|
|--------3-----------3-----|-------3---------3----|--1----------1-----------|


  Q    Q    Q    E  S  S    Q    E  E  Q    Q       Q    E  E  Q    Q     
-------------------------|------------------3----|------------------3----|
-------------------------|-----------------------|-----------------------|
--2-----------------2p-1-|--0-------0------------|--0-------0------------|
-------------------------|-----------------------|--1----------1---------|
-------0---------0-------|-------2----------2----|-------1----------1----|
--2---------2------------|--0----------0---------|-----------------------|


  Q    E  E  Q    Q       Q    Q    E  E  E  E     Q    E  E  E  E  E  E   
------------------3----|------------------------|--0-------0-----3--5--3--|
-----------------------|--3------------------4--|-------------------------|
--0-------0------------|------------------------|-------------------------|
--0----------0---------|--0---------0-----------|-------------------------|
-------0----------0----|------------------0--2--|--3----------3-----------|
-----------------------|-------3-------3--------|-------3-----------3-----|


  Q    Q    Q    E  E     Q    E  E  E   E   E   E     Q    Q    Q    E  E   
--6-----------------4--|--5-------5------8--10---8--|--5-----------------4--|
-----------------------|--6-------6-----10------10--|--7--------------------|
-----------------------|----------------------------|-----------------------|
-----------------------|--0----7-----0--------------|-------7---------7-----|
--4---------4----------|----------------------------|--6---------6----------|
-------3---------3-----|----------------------------|-----------------------|


  Q    E  E  Q    Q       Q    Q    Q    Q       E  E  E  E  E  E  E  E   
--3-------3------------|-------3---------0----|--------------------------|
-----------------------|----------------------|--1-----------------------|
------------------0----|--L---------0----0----|--0-----------------------|
--2----2-----1----1----|--0----0----2---------|-----2-----2-----2-----2--|
-----------------------|-----------------2----|--3-----------3-----------|
--0----0---------------|------------3---------|--------3-----------3-----|


                               |--3--|  |--3--|  |--3--|  |--3--|   
  E  E  E  E  E  E  E  E       E  E  E  E  E  E  E  E  E  E  E  E   
---------------------------||--5--5--5--5--5--5--5--5--5--5--5--5--|
---------------------------||--------------------6-----------------|
--------------------------*||-----------5-----------------2--------|
-----2-----2-----0-----0--*||--3-----------------------------------|
--3-----0-----------2------||--------------------------------------|
--------------3------------||--------------------------------------|


  |--3--|  |--3--|  |--3--|  |--3--|     |--3--|  |--3--|  |--3--|  |--3--|   
  E  E  E  E  E  E  E  E  E  E  E  E     E  E  E  E  E  E  E  E  E  E  E  E   
--3--3--3--3--3--3--5--5--5--0--0--0--|--1--1--1--1--1--1--3--3--3--1--1--1--|
--------------------5-----------------|--------------------------------------|
-----------4-----------------0--------|-----------2--------0-----------------|
--2-----------------------------------|--0--------------------------3--------|
--------------------------------------|--------------------------------------|
--------------------------------------|--------------------------------------|


  |--3--|  |--3--|  |--3--|  |--3--|     |--3--|  |--3--|  |--3--|  |--3--|   
  E  E  E  E  E  E  E  E  E  E  E  E     E  E  E  E  E  E  E  E  E  E  E  E   
--0--0--0--0--0--0--0--0--0--0--1--3--|--5--5--5--5--5--5--5--5--5--5--5--5--|
--------------------------------------|--------------------6-----------------|
-----------0--------------------------|-----------5-----------------2--------|
--2--------------------------2--------|--3-----------------------------------|
--------------------3-----------------|--------------------------------------|
--------------------------------------|--------------------------------------|


  |--3--|  |--3--|  |--3--|  |--3--|     |--3--|  |--3--|  |--3--|  |--3--|   
  E  E  E  E  E  E  E  E  E  E  E  E     E  E  E  E  E  E  E  E  E  E  E  E   
--3--3--3--3--3--3--5--5--5--0--0--0--|--1--1--1--1--1--0--0--0--0-----------|
--------------------5-----------------|-----------------------------3--3--3--|
-----------4-----------------0--------|-----------2--------------------------|
--2-----------------------------------|--0--------------------------0--------|
--------------------------------------|--------------------------------------|
--------------------------------------|--------------------3-----------------|


  |--3--|  |--3--|  |--3--|          |-3| |3|  |-3| |3|  |-3| |3|  |-3| |3|   
  E  E  E  E  E  E  E  E  E  Q       E  S S E  E  S S E  E  S S E  E  S S E   
----------------------------------|--5--5---5--5--5---5--5--5---5--5--5---5--|
--1--1--1--1--1--1--1--1--1--1----|------------------------------------------|
-----------0----------------------|------------------------------------------|
--2-------------------------------|-------3---------3---------3---------3----|
--------------------3-------------|------------3-------------------3---------|
----------------------------------|--1-------------------1-------------------|


  |-3| |3|  |-3| |3|  |-3| |3|  |-3| |3|   
  E  S S E  E  S S E  E  S S E  E  S S E   
--3--3---3--3--3---3--5--5---5--0--0---0--|
------------------------------------------|
------------------------------------------|
-------2---------2---------2---------2----|
------------3---------0---------3---------|
--0---------------------------------------|


  |-3| |3|  |-3| |3|  |-3| |3|  |-3| |3|   
  E  S S E  E  S S E  E  S S E  E  S S E   
--1--1---1--1--1---1--3--3---3--1--1---1--|
------------------------------------------|
------------------------------------------|
-------0---------0---------0---------0----|
------------0-------------------2---------|
--1-------------------3-------------------|


  |-3| |3|  |-3| |3|  |-3| |3|  |-3| |3|   
  E  S S E  E  S S E  E  S S E  E  S S E   
--0--0---0--0--0---0--0--0---0--0--1---3--|
------------------------------------------|
-------0---------0------------------------|
------------2-----------------------------|
--3-------------------3-------------------|
---------------------------3----0----3----|


  |-3| |3|  |-3| |3|  |-3| |3|  |-3| |3|   
  E  S S E  E  S S E  E  S S E  E  S S E   
--5--5---5--5--5---5--5--5---5--5--5---5--|
------------------------------------------|
------------------------------------------|
-------3---------3---------3---------3----|
------------3-------------------3---------|
--1-------------------1-------------------|


  |-3| |3|  |-3| |3|  |-3| |3|  |-3| |3|   
  E  S S E  E  S S E  E  S S E  E  S S E   
--3--3---3--3--3---3--5--5---5--0--0---0--|
------------------------------------------|
------------------------------------------|
-------2---------2---------2---------2----|
------------3---------0---------3---------|
--3---------------------------------------|


  |-3| |3|  |-3| |3|  |-3| |3|  |-3| |3|   
  E  S S E  E  S S E  E  S S E  E  S S E   
--1--1---1--1--1---0--0--0---0------------|
--------------------------------3--3---3--|
-------2---------2----0-------------------|
--0---------3--------------0---------0----|
--------------------------------2---------|
------------------------------------------|


  |-3| |3|  |-3| |3|  |-3| |3|                                   
  E  S S E  E  S S E  E  S S E  Q        Q    E  Q    E   E  E   
-------------------------------------|---8-------8--------8-----|
--1--1---1--1--1---1--1--1---1--1----|--------8-------8--11--8--|
-------0---------0-------------------|---9----------------------|
------------2------------------------|--------------------------|
--3-------------------3---------3----|--10----------------------|
---------------------------3---------|---8----------------------|


   Q    E  Q    E   E  E      Q    E   Q    E   E   E   
---8-------8--------8-----|----------------------------|
--------8-------8--11--8--|--10----------------10------|
---9----------------------|--------8--10----8------10--|
--------------------------|--10------------------------|
--10----------------------|---8------------------------|
---8----------------------|----------------------------|


   Q    E   Q    E   E   E     E   E  E   E  E   E   E   E   
----------------------------|--8----------8----------8------|
--10----------------10------|---------8----------8--11---8--|
--------8--10----8------10--|--9----------------------------|
---7------------------------|-------------------------------|
----------------------------|-----10-----10-----10------10--|
----------------------------|--8----------------------------|


  E   E  E   E  E   E   E   E      E   E  E   E  E   E   E   E   
--8----------8----------8------|--------------------------------|
---------8----------8--11---8--|--10--------------------10------|
--9----------------------------|----------8--10------8------10--|
-------------------------------|------10-----10-----10------10--|
-----10-----10-----10------10--|---8----------------------------|
--8----------------------------|--------------------------------|


  E  E  E  E  E  E  E  E     W                  
-----------1--------7--1--|-------------------||
--0-----3--------0--------|--1----------------||
-----0-----0--------------|--0----------------||
-----0-----0--------------|--2----------------||
--------------------0--2--|--3----------------||
-----------------3--------|-------------------||




Duration Legend
---------------
W - whole
H - half
Q - quarter
E - 8th
S - 16th
T - 32nd
X - 64th
. - note dotted
|-n-|  - n-tuplets


Tablature Legend
----------------
L - tied note
x - dead note
g - grace note
(n) - ghost note
> - accentuded note
NH - natural harmonic
AH - artificial harmonic
TH - tapped harmonic
SH - semi harmonic
PH - pitch harmonic
h - hammer on
p - pull off
b - bend
br - bendRelease
pb - preBend
pbr - preBendRelease
brb - bendReleaseBend
\n/ - tremolo bar dip
\n - tremolo bar dive
-/n - tremolo bar Release up
/n\ - tremolo bar inverted dip
/n - tremolo bar return
-\n - tremolo bar Release down
S - shift slide
s - legato slide
/ -  slide into from below or out of upwards
\ -  slide into from above or out of downwards
~ - vibrato
W - wide vibrato
tr - trill
TP - tremolo picking
T - tapping
S - slap
P - pop
< - fade in
^ - brush up
v - brush down
Login or Register to remove this ad.

5 comments on Cool Cool Mountain

I really apologize that this

I really apologize that this has fast triplets against eighth notes. It's a tricky rhythm, but it would be boring to repeat the same accompaniment for that part. Good luck!

FIRST POST ON AN EPIC TAB!

FIRST POST ON AN EPIC TAB! dude this is tight!

dude what do you mean "FIRST

dude what do you mean "FIRST POST ON AN EPIC TAB". He did an awsome job on the "Metal Gear Solid Theme". Anyway, this is a really good arrangement Seth.

Nicely done! I do have to

Nicely done! I do have to admit though that the triplets sound better as tremolo.

This one brought a smile to

5

This one brought a smile to my face. Very well done.