Login or Register to remove this ad.

Staff Roll (Mario Kart 64) Guitar Tab

Submitted: Dec 11, 2008 by hslesperance (Last updated: Jan 03, 2009)

0
Download | Listen
Game: Mario Kart 64
Composer(s): Kenta Nagata
Style: 2 or more instruments, Transcription
Series: Mario

AutoScroll: Slow | Medium | Fast
Mario Kart 64
Staff Roll
Composed by Kenta Negata
Tabbed by hslesperance
11/26/08

Standard Tuning

Guitar 1

e---------------------------------------------------------------
B---9--------------9--10--9--------12-12-----------------9-10---
G----------------------------11-----------------------11--------
D---------------------------------------------------------------
A---------------------------------------------------------------
E---------------------------------------------------------------

e---------------------------------------------------------------
B---10--9-------------------------------9--------------9--10--9-
G----------11--11----9-9----------------------------------------
D---------------------------------------------------------------
A---------------------------------------------------------------
E---------------------------------------------------------------

e--------------------------------9-10----------------10--9------
B---------12--12--------------12----------------------------12--
G---11----------------------------------------------------------
D---------------------------------------------------------------
A---------------------------------------------------------------
E---------------------------------------------------------------

e---------------------------------------------------------------
B---12----10-10----------------12-------------------------9-----
G------------------------------------9-9-----------9--11--------
D-----------------------------------------------9---------------
A---------------------------------------------------------------
E---------------------------------------------------------------

e---------------------------------------------------------------
B-------------------------12--------10--9-----------9-9----10---
G---11--9--------------9-------------------9--11----------------
D---------------------------------------------------------------
A---------------------------------------------------------------
E---------------------------------------------------------------

e---------------------------------------------------------------
B---9--10--12-------------------------9----------------------12-
G----------------9-9-----------9--11-------11-9------------9----
D---------------------------9-----------------------------------
A---------------------------------------------------------------
E---------------------------------------------------------------

e---------------------------------------------------------------
B---10--9-----------9-9------10----9----------------------------
G----------9--11-----------------------11-----------------------
D---------------------------------------------------------------
A---------------------------------------------------------------
E---------------------------------------------------------------

e---------------------------------------------------------------
B---9--------------9--10--9--------12-12-----------------9-10---
G----------------------------11-----------------------11--------
D---------------------------------------------------------------
A---------------------------------------------------------------
E---------------------------------------------------------------

e---------------------------------------------------------------
B---10--9-------------------------------9--------------9--10--9-
G----------11--11----9-9----------------------------------------
D---------------------------------------------------------------
A---------------------------------------------------------------
E---------------------------------------------------------------

e--------------------------------9-10-------------10-10--9------
B---------12--12--------------12----------------------------12--
G---11----------------------------------------------------------
D---------------------------------------------------------------
A---------------------------------------------------------------
E---------------------------------------------------------------

e---------------------------------------------------------------
B---12----10-10----------------12-------------------------9-----
G------------------------------------9-9-----------9--11--------
D-----------------------------------------------9---------------
A---------------------------------------------------------------
E---------------------------------------------------------------

e---------------------------------------------------------------
B-------------------------12--------10--9-----------9-9----10---
G---11--9--------------9-------------------9--11----------------
D---------------------------------------------------------------
A---------------------------------------------------------------
E---------------------------------------------------------------

e---------------------------------------------------------------
B---9--10--12-------------------------9----------------------12-
G----------------9-9-----------9--11-------11-9------------9----
D---------------------------9-----------------------------------
A---------------------------------------------------------------
E---------------------------------------------------------------

e---------------------------------------------------------------
B---10--9-----------9-9----10----9--------12--------------------
G----------9--11---------------------9-11-----------------------
D---------------------------------------------------------------
A---------------------------------------------------------------
E---------------------------------------------------------------

e---------------------------------------------------------------
B------12-------------------------------------------------------
G---9-----------------------------------------------------------
D---------------------------------------------------------------
A---------------------------------------------------------------
E---------------------------------------------------------------

Guitar 2

Play 2 times at 00:45
e---------------------------------------------------------------
B---------------------------------------------------------------
G---9------------9-------------9-------------9-------------9----
D---9------------11------------11------------11------------9----
A---9------------11------------12------------11------------9----
E---------------------------------------------------------------

Play 3 times at 1:44
e---------------------------------------------------------------
B---------------------------------------------------------------
G---9------------9-------------9-------------9-------------9----
D---9------------11------------11------------11------------9----
A---9------------11------------12------------11------------9----
E---------------------------------------------------------------

Hold to end of the song
e---------------------------------------------------------------
B---------------------------------------------------------------
G---9-----------------------------------------------------------
D---9-----------------------------------------------------------
A---11----------------------------------------------------------
E---------------------------------------------------------------

Guitar 3

Play 6 times at beginning of song
e-----------7--------------------7------------------------------
B---7---5------------5---7---5----------------------------------
G---------------4-----------------------------------------------
D---------------------------------------------------------------
A---------------------------------------------------------------
E---------------------------------------------------------------

Play 4 times at 1:15
e-----------7--------------------7------------------------------
B---7---5------------5---7---5----------------------------------
G---------------4-----------------------------------------------
D---------------------------------------------------------------
A---------------------------------------------------------------
E---------------------------------------------------------------

Play 6 times at 1:45
e---------------------------------------------------------------
B---5--5--5--5--5--5--5--5--5--5--5--5--5--5--5--5--------------
G---------------------------------------------------------------
D---------------------------------------------------------------
A---------------------------------------------------------------
E---------------------------------------------------------------

Play 2 times at end of song
e-----------7--------------------7------------------------------
B---7---5------------5---7---5----------------------------------
G---------------4-----------------------------------------------
D---------------------------------------------------------------
A---------------------------------------------------------------
E---------------------------------------------------------------
Login or Register to remove this ad.