Luigi/Mario/Royal Raceway (Mario Kart 64) Guitar Tab

Submitted: Jul 10, 2008 by Sizzle Bandicoot

3.666665
Average: 3.7 (3 votes)
Download | Listen
Game: Mario Kart 64
Composer(s): Kenta Nagata
Style: Transcription
Series: Mario

AutoScroll: Slow | Medium | Fast
Mario Kart 64 - Mario/Luigi/Royal Raceway
Tabbed By: Sizzle Bandicoot
Mario Raceway, Luigi Raceway, and Royal Raceway have the same music.

e----------------------------------------------------
B-10-10-10---------------------------8----9----10----
G----------------------------------------------------
D----------------------------------------------------
A----------------------------------------------------
E----------------------------------------------------

e-8-8---8-11----8-8----8--------- (four times)
B-----11-11-----------11---11--8--
G-------------------------------
D-------------------------------
A-------------------------------
E-------------------------------

e-20-18-17----------------------------------
B----------20-18-17-15----------------------
G-----------------------17-15------15-15-14-15
D-------------------------------------------
A-------------------------------------------
E-------------------------------------------

e-20-18-17-----------------------------------
B----------20-18-17-15------------------15-17
G----------------------17-15------15-17------
D--------------------------------------------
A--------------------------------------------
E--------------------------------------------
Login or Register to remove this ad.