Ads

Windmill Hut (Legend of Zelda: Ocarina of Time) Guitar Tab

Submitted: Feb 27, 2009 by Freebase (Last updated: Jan 15, 2010)

3.75
Average: 3.8 (4 votes)
Download | Listen
Game: Legend of Zelda: Ocarina of Time
Composer(s): Koji Kondo
Style: Arrangement, Fingerstyle
Series: Legend of Zelda

AutoScroll: Slow | Medium | Fast
Windmill Hut/Song Of Storms
Arranged by Freebase
Composed by Koji Kondo
From the video game, Legend Of Zelda: Ocarina Of Time

Standard Tuning, Capo fret 3

|---0-0----2-----3-3-----2----|
|---0-0----2-----3-3-----2----|
|---0-0----2-----3-3-----2----|
|---2-2----4-----5-5-----4----|
|---2-2----4-----5-5-----4----|
|-0-0-0--2-2---3-3-3---2-2----|x2

|-----0-------0---2---3-2-3-2--------------------------------------|
|-----------------------------3-0---0-------0-----0----------------|
|---0-------0---------------------------0-2-----------0-2----------|
|-2-------2---------0---0-------------2-------------2-----4--------|
|-----2-2-----2-2---------------4-4-3-------------3-------2-2-2----|
|-0-------0-------3---------2---------------3-3-3------------------|

|-----0-------0---2---3-2-3-2------------------------|
|-----------------------------3-0---0-------0---0----|
|---0-------0---------------------------0-2----------|
|-2-------2---------0---0-------------2--------------|
|-----2-2-----2-2---------------4-4-3-------2-2-2----|
|-0-------0-------3---------2------------------------|

Repeat as desired.

Arranged mostly by me, tabbed by request. Note spacings aren't great, but it's still a tab.
Login or Register to remove this ad.

2 comments on Windmill Hut

looks ALOT like kkrieger tab.

looks ALOT like kkrieger tab. I'm not saying that you copied it. It sounds pretty good, though I can't play the first bar...

The first bar is great! =)

The first bar is great! =)