Ads

Windmill Hut (Legend of Zelda: Ocarina of Time) Guitar Tab

Submitted: Oct 29, 2008 by .kkrieger (Last updated: Dec 29, 2009)

4.923075
Average: 4.9 (13 votes)
Download | Listen
Game: Legend of Zelda: Ocarina of Time
Composer(s): Koji Kondo
Style: Arrangement, Fingerstyle
Series: Legend of Zelda

Click here for a video example.

AutoScroll: Slow | Medium | Fast
Song: Windmill Hut / Song of Storms 
Composer: Koji Kondo
Game: The Legend of Zelda - Ocarina of Time (N64)
Arranged for guitar by: .kkrieger 10.29.08


Intro
E.-----------------|-----------------|-----------------|-----------------|
B.-----------------|-----------------|-----------------|-----------------|
G.-----------------|-----------------|-----------------|-----------------|
D.-----2--2-----4--|-----5--5-----4--|-----2--2-----4--|-----5--5-----4--|
A.-----2--2-----4--|-----5--5-----4--|-----2--2-----4--|-----5--5-----4--|
E.--0--------2-----|--3--------2-----|--0--------2-----|--3--------2-----|


Theme
E.------0---------0--|--2-----3-2-3-2-------|------------------|----------------|
B.-------------------|----------------3-0---|--0---------0-----|--0-------------|
G.----0---------0----|----------------------|--------0-2----0--|--------0-2-----|
D.--2---------2------|-----0----0-----------|-----2---------0--|-----2-------4--|
A.------2--2------4--|------------------4---|--3---------------|--3----------2--|
E.--0---------2------|--3-----------2-------|------------3-----|----------------|


E.------0---------0--|--2-----3-2-3-2-------|-------------------|
B.-------------------|----------------3-0---|--0---------0---0--|
G.----0---------0----|----------------------|--------0-2--------|
D.--2---------2------|-----0----0-----------|-----2-------------|
A.------2--2------4--|------------------4---|--3---------2------|
E.--0---------2------|--3-----------2-------|-------------------|


Outro
E.-----------------|-----------------|-----------------|-----------------|
B.-----------------|-----------------|-----------------|-----------------|
G.-----------------|-----------------|-----------------|-----------------|
D.--2-----------4--|-----5--5-----4--|-----2--2-----4--|-----5--5-----4--|
A.-----2--2-----4--|-----5--5-----4--|-----2--2-----4--|-----5--5-----4--|
E.--0--------2-----|--3--------2-----|--0--------2-----|--3--------2-----|


Theme
E.------0---------0--|--2-----3-2-3-2-------|------------------|----------------|
B.-------------------|----------------3-0---|--0---------0-----|--0-------------|
G.----0---------0----|----------------------|--------0-2----0--|--------0-2-----|
D.--2---------2------|-----0----0-----------|-----2---------0--|-----2-------4--|
A.------2--2------4--|------------------4---|--3---------------|--3----------2--|
E.--0---------2------|--3-----------2-------|------------3-----|----------------|


E.------0---------0--|--2-----3-2-3-2-------|-------------------|
B.-------------------|----------------3-0---|--0---------0---0--|
G.----0---------0----|----------------------|--------0-2--------|
D.--2---------2------|-----0----0-----------|-----2-------------|
A.------2--2------4--|------------------4---|--3---------2------|
E.--0---------2------|--3-----------2-------|-------------------|


Outro
E.-----------------|-----------------|-----------------|-----------------|
B.-----------------|-----------------|-----------------|-----------------|
G.-----------------|-----------------|-----------------|-----------------|
D.--2-----------4--|-----5--5-----4--|-----2--2-----4--|-----5--5-----4--|
A.-----2--2-----4--|-----5--5-----4--|-----2--2-----4--|-----5--5-----4--|
E.--0--------2-----|--3--------2-----|--0--------2-----|--3--------2-----|


Login or Register to remove this ad.

6 comments on Windmill Hut

Correction

Just a small note: At the end, after the last Outro part, just finish with an e minor strum or arpeggio or whatever.

hmmmmmmm

4

i gave four stars cause its has annesesary power cords

Unnecessary?

Excuse me, but I can't quite understand your point of view of "unnecessary".
These power chords are even in the original song by Kondo, played by the accordion - it would have been rather short if I had left them out of the song, but more important, it is part of the song IMHO.

Whatever, thanks anyway for having a look.

I think it's beautiful.

I think it's beautiful.

Transcription

5

Quoting Archard here:
"An arrangement is an interpreted variation of a song." -see the home page under the new arrangements tab

There aren't any unnecessary things in an arrangement because it's that person's INTERPRETATION of the music. It's like saying there are too many unnecessary words in your statement (I can't reasonably argue that, but you might want to spell check next time) :/

Great tab by the way. Love the dark tone! :)

This is Awesome

5

Great tab man. 5 stars