Ads

Spirit Temple (Legend of Zelda: Ocarina of Time) Guitar Tab

Submitted: May 13, 2008 by Zelos (Last updated: May 13, 2008)

3.666665
Average: 3.7 (6 votes)
Download | Listen
Game: Legend of Zelda: Ocarina of Time
Composer(s): Koji Kondo
Style: Transcription
Series: Legend of Zelda

AutoScroll: Slow | Medium | Fast
Spirit Temple 
~The Legend of Zelda - Ocarina of Time~
Composed by: Koji Kondo
Arranged by: Zelos                                 
Notes: In my opinion this song is not really meant to be played on a guitar, 
so I changed a lot...and it still doesn't sound very good. :P

Guitar
BPM = 70  
Difficulty: Easy


     Q       Q    Q     H            H        H         
E||-------|-------8~----6~--------|--L-----------------|
B||-------|-----------------------|--------------------|
G||-------|-----------------------|--------------------|
D||-------|-----------------------|--------------------|
A||-------|-----------------------|--------------------|
E||-------|-----------------------|--------------------|


  Q     Q     H            H        H           Q     H.             
--4~----6~----3~--------|--L-----------------|--8~----6~------------|
------------------------|--------------------|----------------------|
------------------------|--------------------|----------------------|
------------------------|--------------------|----------------------|
------------------------|--------------------|----------------------|
------------------------|--------------------|----------------------|


  Q    H        Q        Q     H.               W                 
--L-------------4~----|--6~----3~------------|--L----------------|
----------------------|----------------------|-------------------|
----------------------|----------------------|-------------------|
----------------------|----------------------|-------------------|
----------------------|----------------------|-------------------|
----------------------|----------------------|-------------------|


  T T H.           E  S    Q.     S. T H           Q    Q    S S Q.      
------------------------|------------2-1--------|--L--------------------|
--3-2-3------------L--2-|--3------L-------------|------------3-4-L------|
------------------------|-----------------------|-----------------------|
------------------------|-----------------------|-----------------------|
------------------------|-----------------------|-----------------------|
------------------------|-----------------------|-----------------------|


  Q.     Q.     Q       Q    S S H        S. T    E.  T H.           T  
----------------1----|--L----------------------|-----------------------|
--L------------------|-------------------------|-----------------------|
---------------------|-------0-1-L-------------|--0---0-3------------L-|
---------------------|-------------------------|-----------------------|
---------------------|-------------------------|-----------------------|
---------------------|-------------------------|-----------------------|


  Q    H.              Q.     S. T H         
--------------------|--------------1--------|
--------------------|-----------------------|
--3----0------------|-----------------------|
--------------------|-----------------------|
--------------------|-----------------------|
--------------------|-----------------------|


  Q.     S S S. T T. S. S E  T X    H        S. T E  Q     
---------------------------------|-----------1------------|
--4------L---3--L-2--L--3-L--L-L-|--------------4-3--4----|
---------------------------------|------------------------|
---------------------------------|------------------------|
---------------------------------|------------------------|
---------------------------------|------------------------|


  Q    Q    H           H        T T E.  Q       H        Q    Q     
---------------------|-----------3-L-L---6----|--3--------2----3----|
--L---------3--------|------------------------|---------------------|
---------------------|------------------------|---------------------|
---------------------|------------------------|---------------------|
---------------------|------------------------|---------------------|
---------------------|------------------------|---------------------|


  H        Q    Q       Q    H.              H        H         
--L------------------|--------------------|--------------------|
-----------6----4----|--6-----------------|--------------------|
---------------------|-------7------------|-----------3--------|
---------------------|--------------------|--------------------|
---------------------|--------------------|--------------------|
---------------------|--------------------|--------------------|


  Q    H.              Q    T H        T T T E   
--------------------|---------------------------|
--------------------|--------------------1------|
--L----0------------|-------3-L--------0---3-L--|
--------------------|---------------------------|
--------------------|---------------------------|
--------------------|---------------------------|


  T T E  T Q.     Q    E  T    E.  T E.  H        S T  
----------------------------|-------------------------|
----1-----------------------|--------2---L--------L-L-|
--0---3--L-0------L---------|-------------------------|
----------------------------|-------------------------|
----------------------------|-------------------------|
----------------------------|-------------------------|


  Q    T T S. S Q    Q    T    E  Q.     T T T E  T T E  S.  
--2-------------------------|-------------------------------|
---------1------------------|--------------1--------1-------|
-------0---3--L-0-----------|------------0---3-L--0---3--L--|
----------------------------|-------------------------------|
----------------------------|-------------------------------|
----------------------------|-------------------------------|


  Q    H.              W                  
--------------------|-------------------||
--------------------|-------------------||
--L----0------------|-------------------||
--------------------|-------------------||
--------------------|-------------------||
--------------------|-------------------||




Duration Legend
---------------
W - whole
H - half
Q - quarter
E - 8th
S - 16th
T - 32nd
. - note dotted


Tablature Legend
----------------
L - tied note
Login or Register to remove this ad.

3 comments on Spirit Temple

It would work with a heavy

4

It would work with a heavy rythm guitar in the background playing fifths along with the bass line.

not a very good song to

4

not a very good song to begin with
:P
nonetheless good job

I don't like it either...but

I don't like it either...but well, there was a request for it so I tried my best. It just doesn't work on electric guitar. :)