Ads

Lon Lon Ranch (Legend of Zelda: Ocarina of Time) Guitar Tab

Submitted: Aug 11, 2008 by Kabukibear (Last updated: Nov 27, 2009)

4.583335
Average: 4.6 (12 votes)
Download | Listen
Game: Legend of Zelda: Ocarina of Time
Composer(s): Koji Kondo
Style: 2 or more instruments, Fingerstyle, Transcription
Series: Legend of Zelda

AutoScroll: Slow | Medium | Fast
Lon Lon Ranch                                   
~The Legend of Zelda: Ocarina of Time~
Composed by: Koji Kondo
Tabbed by: Justin Lincoln

*Note
  The lead part is in the guitar pro file, but it was written for an
  actual wind instrument, as I plan on doing this as a duet with someone.
  That being the case, I didn't bother with tabbing the fingerings for it
  to be played on the guitar and hid the tablature in the GP file. You can
  still view the tab for it but it will be akward and move up and down one
  string and also sound an octave higher than you probably think it 
  should. Check Archard's tab if you want to play the lead without having
  to drop it an octave in your head and rework your own fingerings.

Guitar

     Q    E  Q.     Q    E     Q    E  H.              Q    E  Q.     Q    E   
E||-------------------------|-----------------------|-------------------------|
B||----------3------3-------|-----------------------|----------3------3-------|
G||----------2------2-------|----------4------------|----------2------2-------|
D||-------4--------------4--|----------5------------|-------4--------------4--|
A||--5----------------------|-------5---------------|--5----------------------|
E||-------------------------|--3--------------------|-------------------------|


  Q    E  H.                Q    E  Q.     Q    E     Q    E  Q.     Q    E   
-----------------------||--------------------------|-------------------------|
-----------------------||-----------3------3-------|----------2------2-------|
----------4------------||*----------2------2-------|----------2------2-------|
----------5------------||*-------4--------------4--|-------3--------------3--|
-------5---------------||---5----------------------|--4----------------------|
--3--------------------||--------------------------|-------------------------|


  Q    E  Q.     Q    E     Q    E  Q.     Q    E     Q    E  Q.     Q    E   
-------------------------|-------------------------|-------------------------|
----------1------1-------|----------0------0-------|-------------------------|
----------2------2-------|----------0------0-------|----------3------3-------|
-------4--------------4--|-------0--------------0--|----------4------4-------|
--3----------------------|--2----------------------|-------5--------------5--|
-------------------------|-------------------------|--6----------------------|


  Q    E  Q.     Q    E     Q    E  Q.     Q    E     Q    E  Q.     Q    E   
-------------------------|-------------------------|-------------------------|
-------------------------|----------0------0-------|----------2------2-------|
----------2------2-------|----------0------0-------|----------0------0-------|
----------4------4-------|-------0--------------0--|-------2--------------2--|
-------5--------------5--|-------------------------|--0----------------------|
--5----------------------|--3----------------------|-------------------------|


  Q    E  Q.     Q    E     Q    E  Q.     Q    E     Q    E  Q.     Q    E   
-------------------------|-------------------------|-------------------------|
----------3------3-------|----------2------2-------|----------1------1-------|
----------2------2-------|----------2------2-------|----------2------2-------|
-------4--------------4--|-------3--------------3--|-------4--------------4--|
--5----------------------|--4----------------------|--3----------------------|
-------------------------|-------------------------|-------------------------|


  Q    E  Q.     Q    E     Q    E  Q.     Q    E     Q    E  Q.     Q    E   
-------------------------|-------------------------|-------------------------|
----------0------0-------|-------------------------|-------------------------|
----------0------0-------|----------3------3-------|----------2------2-------|
-------0--------------0--|----------4------4-------|----------4------4-------|
--2----------------------|-------5--------------5--|-------5--------------5--|
-------------------------|--6----------------------|--5----------------------|


                 ^                                                             
  Q    E  Q.     Q    E     Q    E  Q.     Q    E     Q    E  Q    E  Q    E   
-------------------------|-------------------------|---------------1----------|
----------0------2-------|----------3------3-------|----------3-------3-------|
----------0------0-------|----------2------2-------|-------3---------------3--|
-------0---------2----2--|-------4--------------4--|--------------------------|
-----------------0-------|--5----------------------|--1-----------------------|
--3----------------------|-------------------------|--------------------------|


  Q    E  Q    E  Q    E     Q    E  Q    E  Q    E   
---------------0----------|---------------1----------|
----------1-------1-------|----------1-------1-------|
-------3---------------3--|-------2---------------2--|
--------------------------|--3-----------------------|
--3-----------------------|--------------------------|
--------------------------|--------------------------|


  Q    E  Q    E  Q    E     Q    E  Q    E  Q    E   
--------------------------|--------------------------|
---------------3----------|---------------6----------|
----------2-------2-------|----------3-------3-------|
-------3---------------3--|-------5---------------5--|
--5-----------------------|--------------------------|
--------------------------|--3-----------------------|


  Q    E  Q    E  Q    E     Q    E  Q    E  Q    E   
---------------0----------|--------------------------|
----------1-------1-------|---------------3----------|
-------0---------------0--|----------2-------2-------|
--------------------------|-------3---------------3--|
--3-----------------------|--------------------------|
--------------------------|--1-----------------------|


  Q    E  Q    E  Q    E     Q    E  Q    E  Q    E   
--------------------------|---------------1----------|
---------------4----------|----------3-------3-------|
----------2-------2-------|-------3---------------3--|
-------3---------------3--|--------------------------|
--------------------------|--1-----------------------|
--1-----------------------|--------------------------|


  Q    E  Q    E  Q    E     Q    E  Q    E  Q    E   
---------------3----------|---------------1----------|
----------5-------5-------|----------1-------1-------|
-------3---------------3--|-------2---------------2--|
--------------------------|--3-----------------------|
--3-----------------------|--------------------------|
--------------------------|--------------------------|


  Q    E  Q    E  Q    E     Q    E  Q    E  Q    E   
---------------1----------|--------------------------|
----------3-------3-------|---------------3----------|
-------2---------------2--|----------3-------3-------|
--0-----------------------|-------5---------------5--|
--------------------------|--------------------------|
--------------------------|--3-----------------------|


  Q    E  Q    E  Q    E     Q    E  Q    E  Q    E   
--------------------------|--------------------------|
---------------3----------|---------------3----------|
----------3-------3-------|----------3-------3-------|
-------3---------------3--|-------2---------------2--|
--------------------------|--------------------------|
--1-----------------------|--0-----------------------|


  Q    E  Q    E  Q    E       Q    E  Q.     Q    E     Q    E  H.            
---------------0--L--------||-------------------------|-----------------------|
----------2----------------||----------3------3-------|-----------------------|
-------0---------------2--*||----------2------2-------|----------4------------|
--------------------------*||-------4--------------4--|----------5------------|
--0------------------------||--5----------------------|-------5---------------|
---------------------------||-------------------------|--3--------------------|

                                           Da Capo
  Q    E  Q.     Q    E     Q    E  H.             
-------------------------|-----------------------||
----------3------3-------|-----------------------||
----------2------2-------|----------4------------||
-------4--------------4--|----------5------------||
--5----------------------|-------5---------------||
-------------------------|--3--------------------||




Duration Legend
---------------
W - whole
H - half
Q - quarter
E - 8th
S - 16th
T - 32nd
X - 64th
. - note dotted
|-n-|  - n-tuplets


Tablature Legend
----------------
L - tied note
^ - brush up
Da Capo - Go back to the beginning
Login or Register to remove this ad.

9 comments on Lon Lon Ranch

Aww, I was so hoping this

Aww, I was so hoping this would be for solo guitar. *cry*

Oh well, it's still a nice accompaniment for the main melody. It would be fun to play a duet of this with someone.

Sounds brilliant.

5

Sounds brilliant.

Too true. I agree with

Too true. I agree with archard. :/

Well, I was just filling the

Well, I was just filling the void because no one bothered to do it.

You could still do a solo

You could still do a solo arrangement, since you're so good at making them.

I don't know about anyone

4

I don't know about anyone else, but when playing, I found this combination to be easier to play for the intro:


E||-------------------------|-----------------------|-------------------------|
B||----------3------3-------|----------0------------|----------3------3-------|
G||----------2------2-------|----------0------------|----------2------2-------|
D||-------4--------------4--|-----------------------|-------4--------------4--|
A||--5----------------------|-------5---------------|--5----------------------|
E||-------------------------|--3--------------------|-------------------------|


-----------------------|
----------0------------|
----------0------------|
-----------------------|
-------5---------------|
--3--------------------|

Otherwise, great stuff.

Dude, this is amazing. :D

Dude, this is amazing. :D

Edit:
So I accidentally hit enter twice. I'm sorry.

comment still stands. this rocks man.

Dude, this is amazing. :D

5

Dude, this is amazing. :D

Cash. Money. Bears.

5

Cash. Money. Bears.